White Lion

Broken Heart (original Version) Tabs



More from White Lion

White Lion Tabs
White Lion Chords
White Lion Lyrics

tabs-database.com[http://www.tabs-database.com.com/]
TITLE: BROKEN HEART

WRITTEN BY: BRATTA, TRAMP

BY:WHITE LION

ALBUM:FIGHT TO SURVIVE









INTRO:

e----1p0--0h1--1p0-------1p0--0h1--1~----------------|

b-------3----3----3---------3----3-------------------|

g--2-----2----2----2---2-----2----2------------------|

d---2-------------------2----------------------------|

a-0-------------------0------------------------------|

E----------------------------------------------------|



VERSE: (play this a couple of times)

e----1p0--0h1--1p0--------0---------------------------|

b-------3----3----3-----3--3--------------------------|

g--2-----2----2----2--0--0--0-------------------------|

d---2------------------2-----2------------------------|

a-0------------------3--------------------------------|

E-----------------------------------------------------|



(then this) (Here you can add the bass notes).

e----1p0--0h1--1p0--------0~--------------------------|

b-------3----3----3-----3-----------------------------|

g--2-----2----2----2--0--0----------------------------|

d---2------------------2------------------------------|

a(1)-------(0)-------3--------------------------------|

E-------------------(3)-------------------------------|



(play this twice)

e------------------------------------------------|

b------------------------------------------------|

g-----7-7-7--3-3---------------------------------|

d-x--7-7-7--3-3--3-3-3--5-5---------------------|

a-x--5-5-5--1-1--3-3-3--5-5---------------------|

E-----------------1-1-1--3-3---------------------|



(play this 4 times)

e------------------------------------------------|

b----5-5h6-6p5----3-5-6-5-3----------------------|

g-7--7-7------7--5---------5---------------------|

d-7--7-7-------7-5-------------------------------|

a-5-5-5----------3-------------------------------|

E------------------------------------------------|



BRIDGE:

e------------------------------------------------|

b----3~-1~--------------3~-1~--------------------|

g-3~-2~-0~-0-2-3-2-0-3~-2~-0~--------------------|

d-3~-0~-2~-----------3~-0~-2~--------------------|

a-1~----3~-----------1~----3~--------------------|

E------------------------------------------------|



CHORUS:(play twice)

e------------------------------------------------|

b------------------------------------------------|

g---7-7-7--3-3--------------3-3--3-3-3--5-5-5----|

d---7-7-7--3-3--3-3-3--5-5--3-3--3-3-3--5-5-5----|

a---5-5-5--1-1--3-3-3--5-5--1-1--1-1-1--3-3-3----|

E---------------1-1-1--3-3-----------------------|



SOLO:

e--------------------------------------------------|

b------10~-t15p10-t17p10--(t15p)8h10-t15p8~--------|

g-/7tr9--------------------------------------------|

d--------------------------------------------------|

a--------------------------------------------------|

E--------------------------------------------------|



e--------------------------------------------------|

b-t10p6h8-t10p5h6h8t10-p8p6p5~-t10p5h6h8t10p8~-----|

g--------------------------------------------------|

d--------------------------------------------------|

a--------------------------------------------------|

E--------------------------------------------------|



e--------------------------------------------------|

b-t10p8p6p5-h6p5-5---------------------------------|

g-----------------7-t10p5h9-t10p5h9-t10p5h9-t10p5h9|

d--------------------------------------------------|

a--------------------------------------------------|

E--------------------------------------------------|



e--------------------------------------------------|

b--------------------------------------------------|

g-t12p5h9-t12p5h9-t12p5h9-t12p5h9--t12p9p5---------|

d--------------------------------------------------|

a--------------------------------------------------|

E--------------------------------------------------|





E---------------------------------------------------|

e-t15p10h13-t15p10h13-t15p10h13-t15p10h13-----------|

b---------------------------------------------------|

g---------------------------------------------------|

d---------------------------------------------------|

a---------------------------------------------------|

E---------------------------------------------------|



e--------------------------------------------------|

b-t17p10h13-t17p10h13-t18p10h13-t18p10h13----------|

g--------------------------------------------------|

d--------------------------------------------------|

a--------------------------------------------------|

E--------------------------------------------------|



e--------------------------------------------------|

b-t17p10h13-t15p10h13-t15p10h13-13b-15-17b-17br-15-|

g--------------------------------------------------|

d--------------------------------------------------|

a--------------------------------------------------|

E--------------------------------------------------|



e-------------------------------------13-15-17----|

b-17br-17br-15--17br-17br-13--13-15-17------------|

g-------------------------------------------------|

d-------------------------------------------------|

a-------------------------------------------------|

E-------------------------------------------------|



e------------------------------------13h15h17-13~--|

b-13h15h17-13h15h17-13h15h17-13h15h17--------------|

g--------------------------------------------------|

d--------------------------------------------------|

a--------------------------------------------------|

E--------------------------------------------------|





BRIDGE





e----------------------------------------------12h13h15-17-19b-|

b----3~-1~--------------3~-1~----------12h13h15----------------|

g-3~-2~-0~-0-2-3-2-0-3~-2~-0~--10h12h14------------------------|

d-3~-0~-2~-----------3~-0~-2~----------------------------------|

a-1~----3~-----------1~----3~----------------------------------|

E--------------------------------------------------------------|



CHORUS: (put some slides in on the 2 last choruses)

e----------------------------------------------(19b)-|

b----------------------------------------------------|

g---7-7-7--3-3--------------3-3--3-3-3--5-5-5--------|

d---7-7-7--3-3--3-3-3--5-5--3-3--3-3-3--5-5-5--------|

a---5-5-5--1-1--3-3-3--5-5--1-1--1-1-1--3-3-3--------|

E---------------1-1-1--3-3---------------------------|



OUTRO:

e--------------------------------------------------|

b--------------------------------------------------|

g-7-9-10-9-7--7-9-10-12-7--7-9-10-9-7--------------|

d--------------------------------------------------|

a(5-7-8--7-5--5-7-8--10-5--5-7-8--7-5)-------------|

E--------------------------------------------------|



e-----2~--------------------------------------------|

b-3-3-3~--------------------------------------------|

g-2-3-2~--------------------------------------------|

d-0-3-0~--------------------------------------------|

a---------------------------------------------------|

E---------------------------------------------------|

Added by tabs-database.com.com and our distinguished partners

Related White Lion Tabs

Broken Home tabs
Radar Love tabs
Love Don Come Easy tabs
In The City tabs
Wait tabs
Where Do We Run tabs
Broken Heart tabs
LADY OF THE VALLEY tabs
Blue Monday tabs
Dont Say Its Over tabs
All You Need Is Rock N Roll tabs
Little Fighter tabs
When The Children Cry tabs
ALL YOU NEED IS ROCK AND ROLL tabs
You Are All I Need tabs
When The Children Cry Pt 3 tabs
Sweet Little Loving tabs
BABY BE MINE tabs
Tell Me tabs
Farewell To You tabs


Guitar Tabs




All tabs are property and copyright of their owners. All tabs provided for educational purposes only. Privacy Policy, DMCA, Links