The Rolling Stones

Start Me Up Tabs



More from The Rolling Stones

The Rolling Stones Tabs
The Rolling Stones Chords
The Rolling Stones Bass
The Rolling Stones Lyrics



"START ME UP"
BY THE ROLLING STONES
tabbed by:Thunderbird


THIS IS THE INTRO:

E-----------------------------------------
B--5-6-6---5--6-6-6-5-3--3-4-3--3--3-4-3--
G--5-5-5---5--5-5-5-5-3--3-3-3--3--3-3-3-- THEN REPEAT
D--5-7-7---5--7-7-7-5-3--3-5-3--3--3-5-3--
A-----------------------------------------
E-----------------------------------------


THEN IT GOES:
E------------------------------------------
B------------------------------------------
G------------------------------------------
D--5-5-5-5-5-5-5-5-------------------------
A--3-3-3-3-3-3-3-3-3-3-3-3-3-3-3-3---------
E------------------1-1-1-1-1-1-1-1---------

E------------------------------------------
B------------------------------------------
G------------------------------------------
D--5-5-5-5-5-5-5-5-------------------------
A--3-3-3-3-3-3-3-3-3-3-3-3-3-3-3-3---------
E------------------1-1-1-1-1-1-1-1---------

E------------------------------------------
B------------------------------------------
G------------------------------------------
D--5-5-5-5-5-5-5-5-------------------------
A--3-3-3-3-3-3-3-3-3-3-3-3-3-3-3-3---------
E------------------1-1-1-1-1-1-1-1---------

E------------------
B------------------
G------------------ X4
D--5-5-7-7-5-5-7-7-
A--3-3-3-3-3-3-3-3-
E------------------


Related The Rolling Stones Tabs

The Worst tabs
Melody tabs
Gimmie Shelter (chords) tabs
One Hit To The Body tabs
Can You Hear The Music tabs
Wanna Hold You tabs
Aint To Proud To Beg tabs
Rocks Off tabs
Winter tabs
Its Only Rock N Roll tabs
Happy tabs
No Use In Crying tabs
Wild Horses tabs
Gimmie Shelter Live tabs
You Cant Always Get What You Want tabs
Sister Morphine tabs
Till The Next Goodbye tabs
Live With Me tabs
Shake Your Hips tabs
Shes A Rainbow tabs


Guitar Tabs




All tabs are property and copyright of their owners. All tabs provided for educational purposes only. Privacy Policy, DMCA, Links