Springfield Dusty

Son Of A Preacher Man Bass Tabs



More from Springfield Dusty

Springfield Dusty Tabs
Springfield Dusty Chords
Springfield Dusty Bass

Date: Thu, 1 May 2003 21:50:24 +0200 (CEST)
From: Jan Björklund 
Subject: s/springfield_dusty/son_of_a_preacher_man.btab

dusty_springfield/son_of_a_preacher_man.btab

Basstab by Jan Bjorklund, Finland; 
jani_bjorklund@yahoo.se 
You are welcome to request for basstabs!
Bienvenidos a pedirme transcripciones para el bajo!
Be sure to use a monospaced font!

TablEdited by Jan Bjorklund
Tuning : E A D G 	Time Signature: 4/4

 tempo 90|       |       |        |       |       |       |        
|--------------------------------|----------------9---9-----------|
|--------------------------------|--------------9---------------9-|
|--------------------------------|7-------------------------------|
|------------------------------7-|--------------------------------|

 |       |       |       |        |       |       |       |        
|--------------------------------|----------------9---9-----------|
|--------------------9---9---9h11|--------------9---------------9-|
|7---7-----------9h11------------|7---7---------------------------|
|--------------7-----------------|--------------------------------|

 |       |       |       |        |Billy Ray was a preacher's son   
|----------------------------6---|--------------------9---9---7---|
|----------------6---9-6-9-------|------------------9-----------9-|
|7---7---------------------------|7---7---------------------------|
|--------------------------------|--------------------------------|

 And when his daddy would visit   he'd come along             
|--------------------9-9---7-----|----------------9---9---9---9-7-|
|7---7---------7-7-9---------7-9-|--------------9-----------------|
|--------------------------------|7-------------------------------|
|--------------------------------|--------------------------------|

 |       |       |       |        |       |       |       |        
|--------------------------------|--------------------------------|
|9---9-----------9---9---9-----7-|9---9-------7---9---9---9-------|
|--------------9-------------9---|--------7-9---9-------------7h9-|
|--------------------------------|--------------------------------|

 |       |       |       |        |       |       |       |        
|--------------------------------|--------------------------------|
|9---9---------9-----------------|9---9---------------119-119-----|
|--------------------9---9---119-|----------------------------11--|
|----------------10--------------|--------------------------------|

 |       |       |       |        |       |       |       |        
|------------------------9-7-----|----------------9---9---9-6-----|
|----------------------9-----7-9-|7---7---------9-------------7-9-|
|7---7---------------------------|--------------------------------|
|--------------------------------|--------------------------------|

 |       |       |       |        |       |       |       |        
|--------------------7-9---7-----|----------------9---9---9-7-----|
|------------------9---------7-9-|7---7---------9-------------7-9-|
|7---7-----------7---------------|--------------------------------|
|--------------7-----------------|--------------------------------|

 |       |       |       |        |       |       |       |        
|--------------------------------|--------------------------------|
|----------------9---9-----------|7---7---------------------------|
|7---7---------------------------|--------------------------------|
|--------------------------------|--------------------------------|

 |       |       |       |        |       |       |       |        
|----------------9-7-9---9-7-----|--------------------------------|
|--------------9-------------7-9-|-----and that's all for now-----|
|7---7---------------------------|---The bass is very mellow and--|
|--------------------------------|-----------hard to tab----------|


Transcribe! 6.0 transcription http://www.seventhstring.demon.co.uk/
Created with TablEdit http://www.tabledit.com/
Listen to this song at Rdio  
Get this song at amazon.com     Ringtones Ringtones  eMusic  

Learn to play: Songwriting, Piano, Harmonica, Guitar

Related Springfield Dusty Bass Tabs

Son Of A Preacher Man bass
Little by little bass
I only wanna be with you bass


Guitar Tabs




All tabs are property and copyright of their owners. All tabs provided for educational purposes only. Privacy Policy, DMCA