Seether

Country Song Tabs



More from Seether

Seether Tabs
Seether Chords
Seether Bass
Seether Lyrics

--INTRO/VERSE--

e|------------------------------------------------------------------------|
B|---4b-3-------3-6b-3~-------4b-3----1/3---------------------------------|
G|--------2~-5b--------------------2~-----5-0h2---------------------------|
D|----------------------------------------------3-------------------------|
A|------------------------------------------------------------------------|
D|------------------------------------------------------------------------|

e|------------------------------------------------------------------------|
B|---4b-3-------3-6b-3~------1/3------------------------------------------|
G|--------2~-5b---------5-2------5----------------------------------------|
D|----------------------------------7/5-3--5h6h7--------------------------|
A|------------------------------------------------------------------------|
D|------------------------------------------------------------------------|

**Note The Change At The End Of These Next Two Sequences Below**
e|------------------------------------------------------------------------|
B|---4b-3-------3-6b-3~-------4b-3----1/3---------------------------------|
G|--------2~-5b--------------------2~-----3/5-2-0-------------------------|
D|------------------------------------------------3-----------------------|
A|------------------------------------------------------------------------|
D|------------------------------------------------------------------------|

e|---------------------------1/3-1---------------------------------------|
B|---4b-3-------3-6b-3~--------------------------------------------------|
G|--------2~-5b---------5-2----------------------------------------------|
D|---------------------------------7/5-3--5h6h7--------------------------|
A|-----------------------------------------------------------------------|
D|-----------------------------------------------------------------------|

**Now Back To The First Ending Sequence, Play The Two Lines Twice Through**
e|------------------------------------------------------------------------|
B|---4b-3-------3-6b-3~-------4b-3----1/3---------------------------------|
G|--------2~-5b--------------------2~-----5-0h2---------------------------|
D|----------------------------------------------3-------------------------|
A|------------------------------------------------------------------------|
D|------------------------------------------------------------------------|

e|------------------------------------------------------------------------|
B|---4b-3-------3-6b-3~------1/3------------------------------------------|
G|--------2~-5b---------5-2------5----------------------------------------|
D|----------------------------------7/5-3--5h6h7--------------------------|
A|------------------------------------------------------------------------|
D|------------------------------------------------------------------------|

e|------------------------------------------------------------------------|
B|---4b-3-------3-6b-3~-------4b-3----1/3---------------------------------|
G|--------2~-5b--------------------2~-----5-0h2---------------------------|
D|----------------------------------------------3-------------------------|
A|------------------------------------------------------------------------|
D|------------------------------------------------------------------------|

e|------------------------------------------------------------------------|
B|---4b-3-------3-6b-3~------1/3------------------------------------------|
G|--------2~-5b---------5-2------5----------------------------------------|
D|----------------------------------7/5-3--5h6h7--------------------------|
A|------------------------------------------------------------------------|
D|------------------------------------------------------------------------|


 --PRE-CHORUS--


e|------------------------------------------------------------------------|
B|---4b-3-------3-6b-3~-------4b-3----------------------------------------|
G|--------2~-5b--------------------2~--3/5-2-0----------------------------|
D|---------------------------------------------3--------------------------|
A|------------------------------------------------------------------------|
D|------------------------------------------------------------------------|

e|---------------------------------------------------------------------|
B|---4b-3-------3-6b-3~-----8-8-6-8------------------------------------|
G|--------2~-5b-------------7-7-5-7-------5br-3-5~---------------------|
D|--------------------------5-5-3-5------------------------------------|
A|--------------------------5-5-3-5------------------------------------|
D|--------------------------5-5-3-5------------------------------------|


--CHORUS--

**Just Going To Give You The Chords Here, Play These Two Lines Twice Through**
e|-----------------------------------------------------------------------|
B|----3-------6-------8-------13-----------------------------------------|
G|----2-------5-------7-------12-----------------------------------------|
D|----0-------3-------5-------10-----------------------------------------|
A|----0-------3-------5-------10-----------------------------------------|
D|----0-------3-------5-------10-----------------------------------------|

e|-----------------------------------------------------------------------|
B|----3-------6-------8--------------------------------------------------|
G|----2-------5-------7--------------------------------------------------|
D|----0-------3-------5-------5br-3--------------------------------------|
A|----0-------3-------5-------------5------------------------------------|
D|----0-------3-------5--------------------------------------------------|


 --SECOND VERSE--
This verse is more or less the same as the first... I think you guys can handle it
with what I've given you.



REPEAT PRE-CHORUS



REPEAT CHORUS




--SOLO--
                                               This part kind of gets lost in the rhythm
                                               section so I play this because it sets you
                                               up nicely for the proceeding notes... It
                                               sounds right to me.
                                                   v
e|--------------------------------------------------------------------------|
B|--------------------------------------------------------------------------|
G|-------7---------7-------5/7-7-7-7-7-7-7-7-7------------15-------15-------|
D|---3h5-------3h5-------3-------------------------12h14-----12h14----12/14-|
A|--------------------------------------------------------------------------|
D|--------------------------------------------------------------------------|

e|-------------------------------10--------------------------10-------15---|
B|-15-15-15-15-15-15-15-15-------13b^-15p13p10-10---15p13p10-13b^--15-18b^-|
G|-14-14-14-14-14-14-14-14---------------------13b^------------------------|
D|-------------------------------------------------------------------------|
A|-------------------------------------------------------------------------|
D|-------------------------------------------------------------------------|

                        (vDuring The Bend Hit That D note on the 10th)
e|-----10-10-----------16b~~~~~-----------------------------------------------|
B|-18~-13 b ^------13~~-------------------------------------------------------|
G|------------12b-------------------------------------------------------------|
D|----------------------------------------------------------------------------|
A|----------------------------------------------------------------------------|
D|----------------------------------------------------------------------------|


 --BRIDGE--


e|------------------------------------------------------------------------|
B|------------------------------------------------------------------------|
G|------------------------------------------------------------------------|
D|---0-0------3-3-----3------0-0------3-3-----3-5-5br---------------------|
A|---0-0--3h5-----3h5---5~~--0-0--3h5-----3h5-----------------------------|
D|---0-0---------------------0-0------------------------------------------|

e|----------------------------------------------------------------------------|
B|--------------------------8-8-6-8-6~~~--------------------------------------|
G|--------------------------7-7-5-7-5~~~--------------------------------------|
D|---0-0-----3-3-----3------5-5-3-5-3~~~-(let ring)---------------------------|
A|---0-0--3h5----3h5---5~~--5-5-3-5-3~~~--------------------------------------|
D|---0-0--------------------5-5-3-5-3~~~--------------------------------------|


**I'm just going to give the chords here as well, you can figure it out**

"Say what you want, but you're not going to win this time." part.
e|------------------------------------------------------------------------|
B|------------------------------------------------------------------------|
G|--7---10---12---7---12---10--7--10--12---14-----------------------------|
D|--x---x----x----x---x----x---x--x---x----x------------------------------|
A|--5---8----10---5---10---8---5--8---10---12-----------------------------|
D|------------------------------------------------------------------------|

e|------------------------------------------------------------------------|
B|------------------------------------------------------------------------|
G|--7---10--12---7---12---10--7---10--12---19-----------------------------|
D|--x---x---x----x---x----x---x---x---x----x------------------------------|
A|--5---8---10---5---10---8---5---8---10---17-----------------------------|
D|------------------------------------------------------------------------|

--REPEAT CHORUS--

--OUTRO-- (pretty much the bridge all over again)

e|------------------------------------------------------------------------|
B|------------------------------------------------------------------------|
G|------------------------------------------------------------------------|
D|---0-0------3-3-----3------0-0------3-3-----3-5-5br---------------------|
A|---0-0--3h5-----3h5---5~~--0-0--3h5-----3h5-----------------------------|
D|---0-0---------------------0-0------------------------------------------|

e|-------------------------------------------------------------------------|
B|--------------------------8-8-6-8----------------------------------------|
G|--------------------------7-7-5-7----------------------------------------|
D|---0-0-----3-3-----3------5-5-3-5--5br-3---------------------------------|
A|---0-0--3h5----3h5---5~~--5-5-3-5--------5-------------------------------|
D|---0-0--------------------5-5-3-5----------------------------------------|

e|------------------------------------------------------------------------|
B|------------------------------------------------------------------------|
G|------------------------------------------------------------------------|
D|---0-0------3-3-----3------0-0------3-3-----3-5-5br---------------------|
A|---0-0--3h5-----3h5---5~~--0-0--3h5-----3h5-----------------------------|
D|---0-0---------------------0-0------------------------------------------|

e|----------------------------------------------------------------------------|
B|--------------------------8-8-6-8-6~~~--------------------------------------|
G|--------------------------7-7-5-7-5~~~--------------------------------------|
D|---0-0-----3-3-----3------5-5-3-5-3~~~-(let ring)---------------------------|
A|---0-0--3h5----3h5---5~~--5-5-3-5-3~~~--------------------------------------|
D|---0-0--------------------5-5-3-5-3~~~--------------------------------------|

Related Seether Tabs

Love Her tabs
Simplest Mistake tabs
Karma And Effect Bass tabs
Fine Again2 tabs
Dont Believe tabs
Driven Under2 tabs
Pig tabs
Fuck It Intro tabs
No Jesus Christ tabs
Sold Me tabs
Because Of Me tabs
Cigarettes Bass tabs
69 Tea tabs
Got It Made tabs
Fine Again5 tabs
Fake It Bass tabs
Pass Slowly tabs
Beer tabs
Out Of My Way tabs
Gift Acoustic tabs


Guitar Tabs




All tabs are property and copyright of their owners. All tabs provided for educational purposes only. Privacy Policy, DMCA, Links