Pinkfloyd

Pigs Bass Tabs



More from Pinkfloyd

Pinkfloyd Tabs
Pinkfloyd Chords
Pinkfloyd Bass
Pinkfloyd Lyrics


                                                                                
---16h14p16-----16h14p16-----14--12--11--12\11\9\7-----9-----(9/4/16-----19-----
--------------------------------------------------------------------------------
--------------------------------------------------------------------------------
--------------------------------------------------------------------------------
                                                                                

                                                                                
p16-----17--------16-----14-----12--14\12\11--12\11\9--------11-----------------
-----------------------------------------------------------------12------10-----
---------------------------------------------------------------------10---------
--------------------------------------------------------------------------------
                                                                                

                                                                                
-----------------12-----12/14--11---------------------------9-------------------
---(10)\---------------------------12-----14-----(14)\---------9----------------
-----------7------------------------------------------------------7-------------
--------------------------------------------------------------------------------
                                                                                

                                                                                
11--11--12-----(12)--11/12/14-----(14)\||---------------------------------||----
---------------------------------------||*-------------------------------*||----
---------------------------------------||*--7-----(7)\0------------------*||----
---------------------------------------||-------------------8-----(8)\3---||----
                                                                                

     Verse                                                                      
||-------9--------9-----------9--------9----------------------------------------
||*-----------------------------------------------------------------------------
||*---7-----5--7--------5--7-----5--7-----5-----2--3-----2--3-----2--3--2--3----
||------------------------------------------------------------------------------
                                                                                

                                                                                
--------------------------------------------------------------------------------
---------------------------------------------------------------------5----------
---------------------------------------5-----7-----5--7-----------7-----5--5----
---2--3-----3--3-----3--3-----3--2-----------------------0----------------------
                                                                                

                                                                                
------------------------------------------9--------9--------------9--------9----
------------------------x-----5-------------------------------------------------
7-----7--5--7--------------5-----5--5--7-----5--7-----------5--7-----5--7-------
---------------0----------------------------------------------------------------
                                                                                
                                            It says this but I think they mean fig.2
                                            Play Fig. 3 (third verse) try it out.      
---------------------------------------------|----------------------------------
---------------------------------------------|----------------------------------
5-----2-----3-----2--3-----2--3--2--3--------|----------------------------------
------------------------------------------2--|---3-----3--3-----3--3-----3------
                                                                                

                                                                                
-----------------9-----------9-----------------------|--------------------------
-----------------------------------------------------|--------------------------
---5--7--7\5--7-----0--5--7-----7--7--7--5-----2-----|--------------------------
2----------------------------------------------------|--------------------------
                                                                                

Fig.1(2nd verse), Fig.3 (third verse)                                           
--------------------------------------------------------------------------------
--------------------------------------------------------------------------------
----3-----3--3-----3--3--3-----2--0---------------------------------------------
----------------------------------------3-----3--3-----3--3-----3--2--3--4------
                                                                                

    You're nearly...                                                            
||------------------------------------------------------------------------------
||------------------------------------------------7-----------------------------
||------------------------------------------------------------------------------
||---5-----5--5-----5--5-----3--4-----5-----5--5--------5--5-----3--4--5--------
                                                                                

                                                                                
--------------------------------------------------------------------------------
---------------------------------------------------7----------------------------
--------------------------------------------------------------------------------
5--5--5-----5-----3--4-----4-----5--5--5--------5-----------3--4-----5----------
                                                                                

                                                                                
---------------------------------------------------------------------|----------
---------7-----------------------------------7-----------------------|----------
---------------------------------------------------------------------|----------
5--5--5--------5-----3--4-----5-----5--5--5--------5-----3--4-----4--|----------
                                                                                

To CODA (3rd verse)                                                             
--------------------------------------------------------------------------------
-------------7-----------7--------------------------------------7---------------
--------------------------------------------------------------------------------
----5--5--5-----------5--------3--4-----4--------5--5--5-----5-----------3------
                                                                                

                                                                                
-----------------------------------------------------9/12--11-------------------
---------------------------------------------------------------12------10-------
-----------------------------------------------7-------------------10-----------
4-----4-----5--5--5--------5--5-----5--5/7--------------------------------------
                                                                                

                                                                                
--------------------------------------------------------------------------------
(10)\---------------------------------------------------------------------------
--------3--2/7-----7--7\---------5-----------------------5----------------------
---------------------------------------0--0--0-----------------0--0--0----------
                                                                                

                                                                                
-----------------------||-----------------------------------------------9/12----
----------------------*||-----------------------7-------------------------------
---5\------7\------5--*||-----------------------------------------7-------------
--------0--------------||-----5--5--5--------5-----5--5--5----------------------
                                                                                

                                                                                
11------------------------------------------------------------------------------
----12--------------------------------------------------------------------------
--------10\---3-----------3-----3--3--------------------------5--------7--------
--------------------------------------3--0-----0--0--0--------------------0-----
                                                                                

                                                                                
--------------------------------------------------------|-----------------------
--------------------------------------------------------|-----------------------
7\------5--------------------5--------7-----------5-----|-----------------------
--------------0--0--0--------------0-----0-----------7--|-----0-----0--0--------
                                                                                

                           play 3 times                                         
||----------------||--||--------------------||----------------------------------
||*--------------*||--||*------------------*||----------------------------------
||*--------------*||--||*------3-----3--3--*||-----3-----3--3-----1-------------
||---0-----0--0---||--||--------------------||-----------------------0----------
                                                                                

                                                                                
------------------------------------------------------------------------||------
------------------------------------------------------------------------||*-----
---------------------------------2-----------------7--------------------||*-----
0--0--------0-----0-----0--0--------0-----0--0-----------0-----0--0-----||------
                                                                                

play 3 times                                                    play 3 times    
-----------------||----------------------------------------||-------------------
----------------*||----------------------------------------||*------------------
----------------*||-----2--2--2--2--2--2--2--2--2----------||*------------7-----
-3--------3--3---||--------------------------------------7\||-------0-----------
                                                                                

                                                                play 3 times    
-------------------||--------------------------------------||-------------------
------------------*||--------------------------------------||*------------------
7-----------7--7--*||-----------7--7-----7--------7--------||*---3-----3--3-----
------0------------||-----0-----------------0--------------||-------------------
                                                                                

                                                                                
-------------------||-----------------------------------------------------------
------------------*||-----------------------------------------------------------
---3-----3--3--1--*||--3-----3--3-----3-----3--3--1--------------7--------------
-------------------||-----------------------------------0-----------0--0--------
                                                                                

                                                                                
--------------------------------------------------------------------------------
--------------------------------------------------------------------------------
7-----7--------7--7-----------7--7--5-----7--------------7--7-----------7--7----
---------0--------------0--------------------------0--------------0-------------
                                                                                

                                                                                
--------------------------------------------------------------------------------
--------------------------------------------------------------------------------
------------7--7--------------7--7-----7\---3-----3--3-----3-----3--3--3--------
------0--------------0--0-------------------------------------------------------
                                                                                

                                                                                
--------------------------------------------------------------------------------
---------------------------------5-----5----------------------------------------
---3-----3--3--------3-----3--3-----------3-----3--3-----3-----3--3--------2----
--------------------------------------------------------------------------------
                                                                                

                                                                                
--------------------------------------------------------------------------------
--------------------------------------------------------------------------9-----
2--2--2--2--2--2--2--2----------------------7--7--------------7-----x--x--------
------------------------------7\------0-----------0-----0-----------------------
                                                                                

                                                                                
----------------------------------------------------------------------/16-------
--------------------------------------------------------------------------------
7--------7--7-----7--------7--------------------7--7-----5--7--------7----------
---0-----------------0-----------10\------0--------------------0----------------
                                                                                

                                                                                
12------------------------------------------------------------------------------
---------------------------------------------------------------------------5----
-------------------------7--------7--7-----5\---3-----3--3-----3-----3----------
----------0-----7--7--------0---------------------------------------------------
                                                                                

                                                                                
5-------------------------------------------------------------------------------
---------------------------x--x/10--(10)\---------------------------------------
------3-----3--3-----3--3----------------9\------3-----3--3--------3-----3------
--------------------------------------------------------------------------------
                                                                                

                                                                                
--------------------------------------------------------------------------------
--------------------------------------------------------------------------------
3--------3-----3--3-----3-----3-----1--------------7--------------7-------------
------------------------------------------0--------------0--0--------8--7\0-----
                                                                                

                                                                                
-------------------------------16--18--16--15\12\7\0----------------------------
---------------------------17---------------------------------------------------
------------7--7-----7--------------------------------------7--7-----7----------
------0-----------------0-----------------------------0-----------------0-------
                                                                                

                                                                                
--------------------------------------------------------------------------------
--------------------------------------------------------------------------------
7--7-----7--7-----7-----------7--7-----7--------------------3-----3--3-----3----
------------------------0-----------------0-----12\-----------------------------
                                                                                

                                                                                
-------------------------------------/14--12-----15--12\------------------------
--------------------------------------------------------------------------------
3-----3--3--1-----3-----3--3-----3-------------------------3-----3--3-----3-----
--------------------------------------------------------------------------------
                                                                                

                                                                                
---------------------------------------------------------------------------|----
---------------------------------------------------------------------------|----
3-----3--3-----3-----------2--2--2--2--2--2--2--2--2--2--2--2--2--2--2--2--|----
---------------------------------------------------------------------------|----
                                                                                

                                                                                
---------------------------------------------16p14h16-----16-----16p14h16-------
--------------------------------------------------------------------------------
--------------------------------------------------------------------------------
0--------(12)-------------------------------------------------------------------
                                                                                

                                                                                
(16)\---14p12h14-----(14)\---12p11h12-----(12)\---11p9h11-----(11)\---9p7h9-----
--------------------------------------------------------------------------------
--------------------------------------------------------------------------------
--------------------------------------------------------------------------------
                                                                                

                                                                                
-------------------------5-----------5/16--------19p16-----------17-------------
9-------------------------------------------------------------------------------
---7-----------(7)\-------------------------------------------------------------
--------------------------------------------------------------------------------
                                                                                

                                                                                
16--14--12--14--12\11-----12--11\9-----------11---------------------------------
-------------------------------------------------12------------10---------------
-----------------------------------------------------------10-------------------
-----------------------------------------------------(12)-----------------------
                                                                                

                                                                                
--------------------------------------------------------------------------------
(10)\---------------------------------------------------------------------------
--------7-----(7)\0---------------------------7-----(7)\0-----------------------
---------------------------8-----(8)\3---------------------------8-----(8)------
                                                                                

                   CODA                                                         
----------------|---------------------------------------------------------------
----------------|---------------------7-----------------------------------------
----------7--5--|---------------------------------------------------------------
\3--------------|---------5--5--5-----------5--5-----3--4-----5-----5--5--5-----
                                                                                

                                                                                
------------------------------------9-----12-----11-----------------------------
-----------------------------------------------------12---------10--------------
------------------------------7--------------------------10---------------10----
------5--5--------5--5----------------------------------------------------------
                                                                                

                                                                                
--------------------------------------------------------------------------------
----5---------------------------------------------------------------------------
\3-----5-------7-----------5--------7--------------5--------7-----------5-------
----------5\0--------------------0-----0-----------------0-----0----------------
                                                                                

                   slow slide  Outro Guitar Solo                                
----------------------------|------9--------9-----------9-----------9-----------
----------------------------|---------------------------------------------------
---7------------------------|---7-----5--7--------5--7--------5--7--------5-----
0-----0--------15-\---7--0--|---------------------------------------------------
                                                                                

                                                                                
------------------------------------------------------------9--------9----------
--------------------------------------------------------------------------------
---2-----3-----3--2--3-----2--3--2--3-----5-----5--------7-----5--7--------5----
--------------------------------------------------------------------------------
                                                                                

                                                                                
---9-----------9----------------------------------------------------------------
--------------------------------------------------------------------------------
7--------5--7--------5-----2-----3-----3--2--3--------2--3--3--3--3--3-----5----
--------------------------------------------------------------------------------
                                                                                

                                                                                
------------------------------9-----9-----9-------------------------------------
---------------------------9-----------9----------------------------------------
5-----7-----7--7-----7--7--------------------5--------3-----3--3-----3--3--3----
--------------------------------------------------------------------------------
                                                                                

                                                                                
--------------------------------------------------------------------------------
--------------------------------------------------------------------------------
5-----7-----7-----7--7-----7--7-----7-----5-----3-----3--3--3--3--3-----3--3----
--------------------------------------------------------------------------------
                                                                                

                                                                                
--------------------------------------------------------------------------------
--------------------------------------------------------------------------------
3--3--3--3--3--5--5-----7--7--7--7--7--7--7--7--7--7--7--7--7--7--5--5-----3----
--------------------------------------------------------------------------------
                                                                                

                                                  play four times               
---------------------------------------------||----------9-----11------12-------
---------------------------------------------||*--------------------------------
3--3--3--3--3--3--3--3--3--3--3--3--3--5--5--||*------7-----9------10-----------
---------------------------------------------||---------------------------------
                                                                                

                                                                                
----14------16------14------12----------5--------7-----9-----11---------12------
--------------------------------------------------------------------------------
12------14------12------10------9\---3--------5-----7-----9---------10----------
--------------------------------------------------------------------------------
                                                                                

                                                                                
------11--------9---------||-----9--------9--------9--------9--------9----------
-------------------------*||----------------------------------------------------
---9---------7--------5--*||--7--------7--------7--------7--------7--------7----
--------------------------||----------------------------------------------------
                                                                                

                                                                                
9-------------------------------------------------------------------------------
--------------------------------------------------------------------------------
------7\5-----2-----3--3--3--3--3--3--3--3--3--3--3--3--3--3--------------------
--------------------------------------------------------------3\---0-----0------
                                                                                

                                                                                
--------------------------------------------------------------------------------
--------------------------------------------------------------------------------
---7-----7-----------7-----7-----5-----3--3--3--3--3--3--3--3--3--3--3--3--3----
---------------0----------------------------------------------------------------
                                                                                

                                                                                
---------------------9--------------------------9-------------------------------
---------------------------------------------9-----9-----9----------------------
5-----7-----7-----7--------7--7--7--7--7--7-----------7-----------3--3--3--3----
--------------------------------------------------------------------------------
                                                                                

                                                                                
------------------------------------------9--------11---------12--------11------
--------------------------------------------------------------------------------
3--3--3--3--3--3--3--3--3--3--3--3-----7--------9---------10---------9----------
--------------------------------------------------------------------------------
                                                                                

                                                                                
------9--------7--------9--------7--------5--------7--------9--------11---------
--------------------------------------------------------------------------------
---7--------5--------7--------5--------3--------5--------7--------9-------------
--------------------------------------------------------------------------------
                                                                                

                                                                                
----12--------11---------12--------11--------9--------11---------12-------------
--------------------------------------------------------------------------------
10---------9---------10---------9---------7--------9---------10---------9-------
--------------------------------------------------------------------------------
                                                                                

                                                                                
11---------12--------11--------9-----------------9--------7--------5------------
--------------------------------------------------------------------------------
-------10---------9---------7--------5--------7--------5--------3--------2------
--------------------------------------------------------------------------------
                                                                                

                              Fade out                                          
------5--------7-----9---------11------|
---------------------------------------|
---3--------5-----7--------9-----------|
---------------------------------------|
                                                                                
                                                                                

Figure 1                                                         Figure 2       
-||--||--||------------------------------------------||--||--||-----------------
-||--||--||------------------------------------------||--||--||------5-----5----
-||--||--||------------------------------------------||--||--||-----------------
-||--||--||--3-----3--3-----3--3-----3--3--3-----(3)\||--||--||---3-------------
                                                                                

                                                                                
---------------------------------9--------9--------------9--------9-------------
--------------------------------------------------------------------------------
------------------------5-----7-----5--7-----------5--7-----5--7-----5----------
---2--3-----3-----2--------------------------------------------------------7----
                                                                                

            Figure 3                                                            
||--||--||----------------------------------------------------------------------
||--||--||----------------------------------------------------------------------
||--||--||---3--------3--3--------3--3--------3--3-----2--0---------------------
||--||--||---------------------------------------------------3--------3--3------
                                                                                

                                                                                
--------------------------------------------------------------------------------
--------------------------------------------------------------------------------
--------------------------------------------------------------------------------
3--------3--------0--3--2--3--4-------------------------------------------------
Listen to this song at Rdio  
Get this song at amazon.com     Ringtones Ringtones  eMusic  

Learn to play: Songwriting, Piano, Harmonica, Guitar

Related Pinkfloyd Bass Tabs

Have A Cigar bass
Dogs bass
Best Days Of Our Lives bass
One Of These Days bass
Coming Back To Life bass
Arnold Layne bass
Let There Be More Light bass
Interstellar Overdrive bass
Keep Talking bass
Astronomy Domine bass
Comfortably Numb bass
Not Now John bass
Any Colour You Like bass
Pow R Toc H bass
Eclipse bass
Another Brick In The Wall bass
In The Flesh bass
Goodbye Blue Sky bass
Flaming bass
Hey You bass


Guitar Tabs




All tabs are property and copyright of their owners. All tabs provided for educational purposes only. Privacy Policy, DMCA, Muzikum