Pinkfloyd

Don\'t Leave Me Now Tabs



More from Pinkfloyd

Pinkfloyd Tabs
Pinkfloyd Chords
Pinkfloyd Bass
Pinkfloyd Lyrics

Keyboard arranged for Guitar
Used with some echo repeats but sounds good without.
 
e|---8--------------8--------------------8--------|
B|---5--------------5--------------------5--4--4--|
G|---5--5--5--5-----5--5--5--5-----------5--5--5--|
D|---6--6--6--6-----6--6--6--6-----------6--6--6--|
A|---------------5--------------------------------|
E|-0----------------------------4--5--6-----------|


e|-------7--------------------8-----------------8-|
B|-4-----4-----3-----4--------5--------9--------5-|
G|-5-----4-----4-----4--------5--5--5-----5-----5-|
D|-6-----5-----5-----5--------6--6--6-----6-----6-|
A|-------------------------------------------4----|
E|----3-----3-----3-----3--0----------------------|


e|-------------------8-----------------7----------|
B|-------------------9--4--4--4--4-----8--3-----3-|
G|-5--5--5--------------5--5--5--5--------4-----4-|
D|-6--6--6--------------6--6--6--6--------5-----5-|
A|------------------------------------------------|
E|----------4--5--6-----------------3--------3----|


e|----------8-----13-----------8--------------8---|
B|----4-----5------------------5--------------5---|
G|----4-----5--5------5--5-----5--5--5--5-----5---|
D|----5-----6--6------6--6-----6--6--6--6-----6---|
A|--------------------------4---------------------|
E|-3-----3---------------------------------6------|


e|----------------7---------------------9---------|
B|-4--4--4--------8--3-----3------3--4--8---------|
G|-5--5--5--------7--4-----4------4--4-----5--5---|
D|-6--6--6-----------5-----5------5--5-----6--6---|
A|------------------------------------------------|
E|-------6--1--2--------3------3-----3--0---------|


e|-----------8--------------------8-----------8---|
B|-----------5--------------------9--4--4--4----8-|
G|--5--5-----5--5--5--5--------------5--5--5------|
D|--6--6-----6--6--6--6--------------6--6--6------|
A|--------4---------------------------------------|
E|-----------------------4--5--6------------------|


e|-------------7----------------------------------|
B|-4-----------8--3-----3-----4-------------------|
G|-5--------------4-----4-----4-------------------|
D|-6--------------5-----5-----5-------------------|
A|------------------------------------------------|
E|----1--2--3--------3-----3----------------------|


Guitar Solo

Guitar 1
e|--0-----0-----0-----0--------|This plays over 
B|----3-----3-----3-----3------|the whole solo.
G|------2-----2-----2-----2----|
D|-----------------------------|
A|-----------------------------|
E|-----------------------------|
____________________________________________________

Guitar 2
e|------------------------------------------------|
B|--5--------------5--------------5----------5----|
G|--7b9~~~~--------7b9~~~~--------7b9~~~~----7b9~~|
D|------------------------------------------------|
A|------------------------------------------------|
E|------------------------------------------------|

e|------------------------------------------------|
B|--8-------------8--------10--12--12h13----------|
G|--10b12~~~------10b12~~~------------------------|
D|------------------------------------------------|
A|------------------------------------------------|
E|------------------------------------------------|
____________________________________________________


There are some chords played over the solo
but they are not very necessary and most of you
will probably just want to play guitar 2 

Related Pinkfloyd Tabs

Set The Controls tabs
On The Turning Away tabs
Poles Apart tabs
Vegetable Man tabs
Lucifer Sam tabs
Hey You tabs
Eclipse tabs
Brain Damage tabs
Coming Back To Life tabs
Southamptondock tabs
Have A Cigar tabs
Theherosreturn tabs
Young Lust tabs
Cirrus Minor tabs
Paranoid Eyes tabs
Breathe Reprise tabs
Don\'t Leave Me Now tabs
Thefinalcut tabs
Interstellar Overdrive tabs
Time tabs


Guitar Tabs




All tabs are property and copyright of their owners. All tabs provided for educational purposes only. Privacy Policy, DMCA, Links