Phoenix

Lasso Bass Tabs



More from Phoenix

Phoenix Tabs
Phoenix Chords
Phoenix Bass
Phoenix Guitar Pro
Phoenix Lyrics

0:16
G|---16----16----13---13-----------------------------|
D|14----14----11----11---11----------------13------11|
A|--------------------------13-16-13-16-11----11-9---|
E|---------------------------------------------------|  x4

0:42
G|---------------------|
D|---------------------|
A|444-222-444-222-44-22|
E|---------------------|  x2

No Bass

Come back in 1:01
G|-----------------------------------------------------------------------|
D|----------------------11---------------------------------------44444444|
A|77777777777777-9999999--1111111111111111-44444444444444-666666---------|
E|-----------------------------------------------------------------------|
*There 11's not 1's

1:14
G|-----3-3--------343---------3-3---------3-343--| I Couldn't figure this bit
D|----4-4-4------4---4-------4-4-4-------4-4---4-| out.
A|2----------2-----------7-----------6-----------|
E|-----------------------------------------------|

1:26
G|--------------------------------------------------------------------------|
D|99999999999999-888888-666666----------------------88888888888----13-----11|
A|-----------------------------7777777776-444444444-------------11----11-9--|
E|--------------------------------------------------------------------------|

No Bass

Come Back in 1:52
G|-----------------------------------------------------------------------|
D|----------------------11---------------------------------------44444444|
A|77777777777777-9999999--1111111111111111-44444444444444-666666---------|
E|-----------------------------------------------------------------------|
*There 11's not 1's

2:04
G|---------------------|
D|---------------------|
A|444-222-444-222-44-22|
E|---------------------| x2

2:11
G|-------------|
D|6666666666666|
A|-------------|
E|-------------|

2:14
G|---16----16----13---13-----------------------------|
D|14----14----11----11---11----------------13------11|
A|--------------------------13-16-13-16-11----11-9---|
E|---------------------------------------------------| x2

2:27
G|--------------------------------------------------------------------------|
D|99999999999999-888888-666666----------------------88888888888----13-----11|
A|-----------------------------7777777776-444444444-------------11----11-9--|
E|--------------------------------------------------------------------------|

2:39
G|---------------------|
D|---------------------|
A|444-222-444-222-44-22|
E|---------------------| x2
Listen to this song at Rdio  
Get this song at amazon.com     Ringtones Ringtones  eMusic  

Learn to play: Songwriting, Piano, Harmonica, Guitar

Related Phoenix Bass Tabs

Fences bass
Lasso bass
1901 bass


Guitar Tabs




All tabs are property and copyright of their owners. All tabs provided for educational purposes only. Privacy Policy, DMCA, Muzikum