Metallica

Whiskey In The Jar Bass Tabs



More from Metallica

Metallica Tabs
Metallica Chords
Metallica Bass
Metallica Lyrics

-------------------------------------------------------------------------------
			     Whiskey in the jar - metallica
-------------------------------------------------------------------------------

Tabbed By :  Håkon
e-mail: haakon_arnesen@yahoo.no

Tuning:

intro
G|---------------------------------------------------------------------------|
D|---5-----5-----------------------------------------------------------------|
A|---------------------------------------------------------------------------|
E|-3---0-3---0-3-------------------------------------------------------------|


Verse 1
G|---------------------------------------------------------------------------|
D|---------------------------------------------------------------------------|
A|------------3----------------------------------3---------------------------|
E|-3---0-------------3------3---------0---------------------3----------------|
As i.Cork..i saw...money..i first...then...i said “stand...devil..

Verse 2 same as verse 1

chorus
G|---------------------------------------------------------------------------|
D|---------------------------------------------------------------------------|
A|---5--------4--3--------3-------3------------------------------------------|
E|-----------------------------------------3---------------------------------|
Mush-a rain.....        whack... there’s whiskey....

Verse 3 same as 1 and 2

Chorus

Solo (gitare)

verse 4 same as 1, 2, and 3

chorus

Related Metallica Bass Tabs

Enter Sandman(100% Correct And Improved) bass
King Nothing bass
Metal Militia bass
The Call Of Ktulu bass
Live Shit Mexico City Bass Solo bass
Welcome Home/ Sanitarium bass
Unforgiven 2 bass
Battery bass
Turn The Page bass
For Whom The Bell Tolls (guitar) bass
No Leaf Clover bass
Carpe Diem Bay bass
Creeping Death bass
Aint My Bitch bass
Imperial March bass
Nothing Else Matters Tab bass
Embo bass
Astronomy bass
Black Album Tab bass
Die Die My Darlying bass


Guitar Tabs




All tabs are property and copyright of their owners. All tabs provided for educational purposes only. Privacy Policy, DMCA, Links