Metallica

Whiskey In Tha Jar Tabs



More from Metallica

Metallica Tabs
Metallica Chords
Metallica Bass
Metallica Lyrics



ARTIST:METALLICA
SONG:WHISKEY IN THE JAR
ALBUM:GARAGE INC.
TABED BY: ERICK OCHOA VIDAL
TUNING:STANDAR


INTRO

GUITAR 1
|------------------------------|
|------------------------------|
|------------------------------|
|-----3---2----0-0--0-0--------|
|-----3---2----0-0--0-0--------|
|-----1---0--------------------|


GUITAR 2
|------------------------------|
|------------------------------|
|----10----9-----7-7--7-7------|
|----10----9-----7-7--7-7------|
|----8-----7-----5-5--5-5------|
|------------------------------|



RIFF1

GUITAR 1
|----------------------------------------|
|----------------------------------------|
|--------------10-------------10~--------|
|----10-10-12-----12-14-10-12------------|
|----------------------------------------|
|----------------------------------------|


|----------------------------------------------------|
|----------------------------------------------------|
|--------------10--------------10--10/12/10~---------|
|----10-10-12------12-14-10-12-----------------------|
|----------------------------------------------------|
|----------------------------------------------------|


|--------------------------------------|
|--------------------------------------|
|--------------10--------------10~-----|
|----10-10-12-----12-14-10-12----------|
|--------------------------------------|
|--------------------------------------|


|-------------------------------------------------------|
|-------------------------------------------------------|
|-------------------------------------------------------|
|----------------10-------------------------------------|
|-----8--8--10-----8--10---8--10/12--8~-----------------|
|-------------------------------------------------------|


CHORDS OF VERSE 1

(REPEAT=R)


................................2X..........................
|----------------------------------------------------------|
|----------------------------------------------------------|
|----10-R---------7-R--------------------------------------|
|----10-R---------7-R----------8-R---------3-R-------------|
|----8-R----------5-R----------8-R---------3-R-------------|
|------------------------------6-R---------1-R-------------|





RIFF2

GUITAR 1
|------------------------------------|
|------------------------------------|
|-------------10-------------10~-----|
|----10-10-12----12-14-10-12---------|
|------------------------------------|
|------------------------------------|


|-----------------------------------------------|
|-----------------------------------------------|
|-------------10-------------10--10/12/10~------|
|----10-10-12----12-14-10-12--------------------|
|-----------------------------------------------|
|-----------------------------------------------|


|----------------------------------------------------------------------------|
|----------------------------------------------------------------------------|
|--------------12(14)-12(14) --12(14)-12(14)----12-10-----10/12/10~----------|
|----10-10-12----------------------------------------------------------------|
|----------------------------------------------------------------------------|
|----------------------------------------------------------------------------|


|----------------------------------------------|
|----------------------------------------------|
|----------------------------------------------|
|----------------10----------------------------|
|-----8--8--10-----8--10---8--10/12--8~--------|
|----------------------------------------------|




CHORDS OF VERSE 2

(REPEAT=R)


................................2X...................
|---------------------------------------------------|
|---------------------------------------------------|
|----10-R---------7-R-------------------------------|
|----10-R---------7-R-----------8-R---------3-R-----|
|----8-R----------5-R-----------8-R---------3-R-----|
|-------------------------------6-R---------1-R-----|



1:28
|------------------------------------------------|
|------------------------------------------------|
|-----5-R----------/4----3------3R---------------|
|-----5-R----------/4----3------3R-------3R------|
|-----3-R----------/2----1------1R-------3R------|
|----------------------------------------1R------|




RIFF3

GUITAR 1
|-------------------------------------------|
|-------------------------------------------|
|-------------10--------------10~-----------|
|----10-10-12----12-14-10-12----------------|
|-------------------------------------------|
|-------------------------------------------|


|-------------------------------------------------|
|-------------------------------------------------|
|-------------10---------------10--10/12/10~------|
|----10-10-12-----12-14-10-12---------------------|
|-------------------------------------------------|
|-------------------------------------------------|


|-------------------------------------------------------------|
|-------------------------------------------------------------|
|--------------12(14)-12(14) --12(14)-12(14)-----10~----------|
|----10-10-12-------------------------------------------------|
|-------------------------------------------------------------|
|-------------------------------------------------------------|


|-------------------------------------------------|
|-------------------------------------------------|
|-------------------------------------------------|
|---------------10--------------------------------|
|-----8--8--10-----8--10---8--10/12--8~-----------|
|-------------------------------------------------|





CHORDS OF VERSE 3

(REPEAT=R)

GUITAR 1
................................2X...................
|---------------------------------------------------|
|---------------------------------------------------|
|----10-R---------7-R-------------------------------|
|----10-R---------7-R----------8-R---------3-R------|
|----8-R----------5-R----------8-R---------3-R------|
|------------------------------6-R---------1-R------|


GUITAR 2
WITH THE FELLING (2X)
|------------------------------------------
|------------------------------------------
|------------------------------------------
|----10-10----10---12----10--7~------------
|------------------------------------------
|------------------------------------------



|-----------------------------------------
|-----------------------------------------
|-----------------------------------------
|----12-12-----12---14----10---8~---------
|-----------------------------------------
|-----------------------------------------

|--------------------------------------
|--------------------------------------
|--------------10~---------------------
|----12-10----------12--10~------------
|--------------------------------------
|--------------------------------------

|-------------------------------
|-------------------------------
|-------------------------------
|----10/12/10------10/12/10~----
|-------------------------------
|-------------------------------




2:26s
|------------------------------------------------|
|------------------------------------------------|
|-----5-R----------/4----3------3R---------------|
|-----5-R----------/4----3------3R-------3R------|
|-----3-R----------/2----1------1R-------3R------|
|----------------------------------------1R------|




SOLO:
PART 1
|---------------------------------------------------------------------------------------------------------
|---------------------------------------------------------------------------------------------------------
|--------------10--------------10~-------14-14--15-17-15-14-------------------------------14--15--17------
|----10-10-12------12-14-10-12-------------------------------17--17/19-17--15-14--15--17------------------
|---------------------------------------------------------------------------------------------------------
|---------------------------------------------------------------------------------------------------------



-------------------------------------------------------------------------------------------------------------------------------------------------------
-------------------------------------------------------------------------------------------------------------------------------------------------------
--17/19---19--19/17---19----22~-----22/20--19--17----19-17-19------------------------------------------------------------------------------------------
---------------------------------------------------------------19-22-20-19---------------------19/20/19------------------------------------------------
------------------------------------------------------------------------------22-20-19----20--------------22-20-19----20-------------------------------
--------------------------------------------------------------------------------------------------------------------------17/18-17/18-17/18-17/18-17---

SOLO
PART 2:

---------------------------------------------------------------------------------------------------------------------------------
---------------------------------------------------------------------------------------------------------------------------------
----10-10-12-----12(14)-12(14)-----12-12-12/10---10--10/12/10-------------10~--10-12-10-12(14)-10~----10-12-10-12(14)--10~-------
----------------------------------------------------------------7-10-9-8---------------------------------------------------------
---------------------------------------------------------------------------------------------------------------------------------
---------------------------------------------------------------------------------------------------------------------------------


-------------------------------------------------------------------|
-------------------------------------------------18/20/18~---------|
--------------------10/12/10--------17/19 -17/19-------------------|
----10/12----10/12-------------------------------------------------|
-------------------------------------------------------------------|
-------------------------------------------------------------------|




RIFF4

GUITAR 1 AND 2
|---------------------------------|
|---------------------------------|
|-------------10-------------10~--|
|----10-10-12----12-14-10-12------|
|---------------------------------|
|---------------------------------|


|-----------------------------------------------|
|-----------------------------------------------|
|-------------10-------------10--10/12/10~------|
|----10-10-12----12-14-10-12--------------------|
|-----------------------------------------------|
|-----------------------------------------------|


|---------------------------------------------------------|
|---------------------------------------------------------|
|--------------12(14)-12(14)---12(14)-12(14)-----10~------|
|----10-10-12---------------------------------------------|
|---------------------------------------------------------|
|---------------------------------------------------------|


|------------------------------------------------|
|------------------------------------------------|
|------------------------------------------------|
|---------------10-------------------------------|
|-----8--8--10-----8--10---8--10/12--8~----------|
|------------------------------------------------|


CHORDS OF VERSE 4

(REPEAT=R)

GUITAR 1 CLEAN/DELAY
................................2X..........................
|---------------------------------------------|
|---------------------------------------------|
|----10----------7----------------------------|
|----10----------7-----------8---------3------|
|----8-----------5-----------8---------3------|
|----------------------------6---------1------|



4:10
|-----------------------------------------------|
|-----------------------------------------------|
|-----5-R----------/4----3-----3R---------------|
|-----5-R----------/4----3-----3R-------3R------|
|-----3-R----------/2----1-----1R-------3R------|
|---------------------------------------1-R-----|




OUTRO

GUITAR 1
|-------------------------------------------|
|-------------------------------------------|
|-----------------10-------------------10~--|
|----10-10-12-------12-14-10-12-------------|
|-------------------------------------------|
|-------------------------------------------|


|-------------------------------------------------|
|-------------------------------------------------|
|--------------10--------------10--10/12/10~------|
|----10-10-12-----12-14-10-12---------------------|
|-------------------------------------------------|
|-------------------------------------------------|


|----------------------------------|
|----------------------------------|
|--------------10-------------10~--|
|----10-10-12-----12-14-10-12------|
|----------------------------------|
|----------------------------------|

(4X)
|-------------------------------------------------|
|-------------------------------------------------|
|-------------------------------------------------|
|----------------10-------------------------------|
|-----8--8--10-----8--10---8--10/12--8~-----------|
|-------------------------------------------------|


|-------|
|-------|
|-------|
|---3~--|
|---3~--|
|---1~--|


Related Metallica Tabs

Harvester Of Sorrow Solo tabs
The God That Failed tabs
The Prince tabs
King Nothin tabs
Whiskey In The Jar tabs
Prince Charming tabs
Noise tabs
My Sharona tabs
Some Kind Of Monster,correct(rate) tabs
King Nothing tabs
Blackened (2) tabs
Jump In The Fire Solo tabs
The Thing That Should Not Be tabs
And Justice Album tabs
Master Of Puppets Solo tabs
Disposable Heroes tabs
Wasting My Hate tabs
Whiskey In The Jar Part 2 tabs
Crash Course In Brain Surgery tabs
Intro Justice tabs


Guitar Tabs




All tabs are property and copyright of their owners. All tabs provided for educational purposes only. Privacy Policy, DMCA, Links