Metallica

Whiplash Solo Tabs



More from Metallica

Metallica Tabs
Metallica Chords
Metallica Bass
Metallica Lyrics



By: Metallica
Name: Whiplash Guitar solo
Tabbed By: Randy(Kreator143)

Guitar solo

P= PULL OFF
H= HAMMER ON
~= VIBRITO
B= HALF BEND
F= FULL BEND
^= BEND
=SLIDE DOWN
/=SLIDE UP

Guitar solo



|--15p14p12------12--15p14p12------12--17p15p12------12--17p15p12------12-|
|------------15----------------15----------------15----------------15-----|
|-------------------------------------------------------------------------|
|-------------------------------------------------------------------------|
|-------------------------------------------------------------------------|
|-------------------------------------------------------------------------|



|--17p15p12------12--17p15p12------12--17p15p12------12--17p15p12------12-|
|------------15----------------15----------------15----------------15-----|
|-------------------------------------------------------------------------|
|-------------------------------------------------------------------------|
|-------------------------------------------------------------------------|
|-------------------------------------------------------------------------|



|--17p15p12------12--17p15p12------12--17p15p12------12--17p15p12------12-|
|------------15----------------15----------------15----------------15-----|
|-------------------------------------------------------------------------|
|-------------------------------------------------------------------------|
|-------------------------------------------------------------------------|
|-------------------------------------------------------------------------|


|-17b---------------------------|
|--------15~-----------------x-x|
|-----------------14b--------x-x|
|------------------------12~----|
|-------------------------------|
|-------------------------------|

|-----------------------------------------------|
|-----12-------12-------12-------14--12---------|
|-----12-------12-------12-------14--12-------12|
|-14-------14-------14-------14-----------14----|
|-----------------------------------------------|
|-----------------------------------------------|


|-----------------------15p12------------------------------------------|
|---------12--15p12------------15-12-------12---------15p12------------|
|--14b--------------------------------14b-----------------------14--12|
|----------------------------------------------------------------------|
|----------------------------------------------------------------------|
|----------------------------------------------------------------------|



|-------------------------------|-----------------------------|
|------------^----^-------------|-----------------------------|
|--2b----{2}b-{2}b--{2}b--r(2)p0|----------0------------------|
|-------------------------------|--2---2----------------------|
|-------------------------------|-----------------------------|
|-------------------------------|-----------------------------|



|-------------------------------------|------------------------------------|
|-------------------------------------|------------------------------------|
|--2p0h2p0--4p0h4p0--5p0h5p0--4p0h4p0-|--5p0h5p0--7p0h7p0--9p0h9p0--7p0h7p0|
|-------------------------------------|------------------------------------|
|-------------------------------------|------------------------------------|
|-------------------------------------|------------------------------------|



|-----------------------------------------|
|-----------------------------------------|
|9p0h9p0--10p0h10p0--12p0h12p0--10p0h10p0-|
|-----------------------------------------|
|-----------------------------------------|
|-----------------------------------------|

|-------------------------------------|
|------------------------------------7|
|-9p0h9p0--7p0h7p0--9f-----9b-----9---|
|-------------------------------------|
|-------------------------------------|
|-------------------------------------|

|-----------------10p7--------------------|
|--10p7----7-10p7------10p7---7--10p7-----|
|--------9------------------9---------9--7|
|-----------------------------------------|
|-----------------------------------------|
|-----------------------------------------|

|--------------------------------|
|--------------------------------|
|-7-7-9p7------------------------|
|---------9p7---7-9p7------------|
|-------------9-------9-7-5------|
|---------------------------7-7~~|


|---------------------------------------------------------|
|--------------------------------------------------12-----|
|------------------------------------------12-14b---------|
|------------------12-12-12-14p12----12-14----------------|
|------12-12-12-14----------------14----------------------|
|---14----------------------------------------------------|



|------12--15p12------------------------------|
|--15------------15--12------12--15p12------12|
|------------------------14-------------14----|
|---------------------------------------------|
|---------------------------------------------|
|---------------------------------------------|

"WHIPLASH!"
|------------------------|
|-15~~~~~~~~~~~~~0--15f-|
|----------------0-------|
|------------------------|
|------------------------|
|------------------------|

|-12--12--12-----12-------12--12--12------12-12-12-12|
|-15f-----15f--------15f--------------15f------------|
|----------------------------------------------------|
|----------------------------------------------------|
|----------------------------------------------------|
|----------------------------------------------------|

|-12-------12--12---12-------12--12---12-----12|
|-12-------12--12---12-------12--12---12-----12|
|-12-------12--12---12-------12--12---12-----12|
|-----------------------14b--------------------|
|----------------------------------------------|
|----------------------------------------------|



|-15p12------12-15p12------12----------------------|
|--------15------------15------15-12-12-12-12-15p12|
|--------------------------------------------------|
|--------------------------------------------------|
|--------------------------------------------------|
|--------------------------------------------------|


P.M================================================
|---------------------------------------------------|
|---------------------------------------------------|
|--14p12-----12--14p12----12--14p12------12--14--12|
|--------14------------14-----------14--------------|
|---------------------------------------------------|
|---------------------------------------------------|



|--3p1p0--3p1p0--3p1p0--5p3p0--6p4p0--6p4p0--7p5p0--8p6p0--|
|----------------------------------------------------------|
|----------------------------------------------------------|
|----------------------------------------------------------|
|----------------------------------------------------------|
|----------------------------------------------------------|



|--8p6p0--9p7p0--10p7p0--11p8p0--12p9p0--12p9p0--14p11p0--15p12p0--|
|------------------------------------------------------------------|
|------------------------------------------------------------------|
|------------------------------------------------------------------|
|------------------------------------------------------------------|
|------------------------------------------------------------------|



|-15p12p0--16p13p0--17p13p0--17p14p0|
|-----------------------------------|
|-----------------------------------|
|-----------------------------------|
|-----------------------------------|
|-----------------------------------|

|--18p15p0--19p16p0--20p17p0--21p18p0-|
|-------------------------------------|
|-------------------------------------|
|-------------------------------------|
|-------------------------------------|
|-------------------------------------|


|--21p18p0--22p19--22p19--22p19--22f----22f~~----|
|------------------------------------------------|
|------------------------------------------------|
|------------------------------------------------|
|------------------------------------------------|
|------------------------------------------------|


Related Metallica Tabs

Crash Course In Brain Surgery tabs
Havest Of Sorrow tabs
St Anger tabs
Sad But True Guitar Tab tabs
Unnamed Feeling tabs
One-100% Correct! tabs
Kirk And Guitars tabs
Guitar Live In Texas Solo tabs
Shoot Me Again Bass tabs
For Whomb The Bell Tolls tabs
Turn The Page tabs
Enter Sandman (complete And Original!!) tabs
Breadfan tabs
For Whome The Bell Tolls tabs
Disposable Heroes Solo tabs
King Nothing tabs
Bleeding Me,correct(rate) tabs
Ender Sandman Intro tabs
Death Is Not The End tabs
The God That Failed tabs


Guitar Tabs




All tabs are property and copyright of their owners. All tabs provided for educational purposes only. Privacy Policy, DMCA, Links