Metallica

Where The Wild Things Are Bass Tabs



More from Metallica

Metallica Tabs
Metallica Chords
Metallica Bass
Metallica Lyrics



Song: Where the Wild Things Are
Band: MetallicA
Album: ReLoad

Transcribed Eros Fratini (e-r-o-s@libero.it)
Tune down 1/2 step (on a 5 strings bass)

------------------------------ Bass Tab -------------------------------
beat 92

Intro:
2/4 4/4
|----------------|--------------------------------|
|----------------|--------------------------------|
|-7------(7)-3--|(3)-----------------------------|
|----------------|--------------------------------|
|----------------|--------------------------------|

2/4
|--------------------------------|----------------|
|--------------------------------|----------------|
|(3)-----------------------------|----------------|
|--------------------------------|----------------|
|--------------------------------|----------------|

4/4
|--------------------------------|--------------------------------|
|--------------------------------|--------------------------------|
|--------------------------------|--------------------------------|
|--------------------------------|--------------------------------|
|--------------------------------|--------------------------------|

|--------------------------------|--------------------------------|
|--------------------------------|--------------------------------|
|-7------(7)-3------------------|(3)---------------(3)/----------|
|--------------------------------|--------------------------------|
|--------------------------------|--------------------------------|

|--------------------------------|--------------------------------|
|--------------------------------|--------------------------------|
|--------------------------------|--------------------------------|
|--------------------------------|--------------------------------|
|--------------------------------|--------------------------------|

|--------------------------------|--------------------------------|
|--------------------------------|--------------------------------|
|--------------------------------|--------------------------------|
|--------------------------------|----------------1212121010-----|(12)
|--------------------------------|--------------------------------|

|Fig.1
|--------------------------------|--------------------------------|
|--------------------------------|--------------------------------|
|--------->----------------------|--------->----------------------|
|-1---0---0-------0-0-0-0-1-1-1-1|-1---0---0-------0-0-0-0-1-1-1-1|
|--------------------------------|--------------------------------|

|--------------------------------|--------------------------------|
|--------------------------------|--------------------------------|
|--------->----------------------|--------->----------------------|
|-1---0---0-------0-0-0-0-1-1-1-1|-1---0---0-------0-0-0-0/3-3-3-3|
|--------------------------------|--------------------------------|

2/4 end Fig.1|
|--------------------------------|----------------|
|--------------------------------|----------------|
|--------->----------------------|----------------|
|-3---0---0-------0-0-0-0/3-3-3-3|-3---0---0------|
|--------------------------------|----------------|

Verse 1, 2:
|Fig.2 end Fig.2|
|--------------------------------|
|--------------------------------|
|-----------------h-p------------| x 10
|-0-3-3-3-3-3-3-3-353-0-0-3p0-0-0|
|--------------------------------|

|Fig.3 end Fig.3|
|--------------------------------|--------------------------------|
|-7-7---7-7-7-7-7-6-6---6-6-6-6-6|-3-3---3-3-3-3-3----------------|
|-5-5---5-5-5-5-5-4-4---4-4-4-4-4|-1-1---1-1-1-1-1----------------|
|--------------------------------|-----------------0h3-3-3-3-3-3-3|
|--------------------------------|--------------------------------|

PreChorus:
|--------------------------------|--------------------------------|
|-7-7---7-7-7-7-7-6-6---6-6-6-6-6|-3-3---3-3-3-3-3----------------|
|-5-5---5-5-5-5-5-4-4---4-4-4-4-4|-1-1---1-1-1-1-1----------------|
|--------------------------------|-----------------0h3-3-3-3-3-3-3|
|--------------------------------|--------------------------------|

|Fig.4 2/4
|--------------------------------|----------------|
|-7-7---7-7-7-7-7-6-6---6-6-6-6-6|-9-------5------|
|-5-5---5-5-5-5-5-4-4---4-4-4-4-4|-7-------3------|
|--------------------------------|----------------|
|--------------------------------|----------------|

4/4 end Fig.4|
|--------------------------------|--------------------------------|
|(5)---------(5)/10--------------|-9----------(9)-5--------------|
|(3)---------(3)/----------------|--------------------------------|
|-----------------8--------------|-7----------(7)-3--------------|
|--------------------------------|--------------------------------|

Chorus:
2/4 4/4
|----------------|-----------------5--------------|
|----------------|--------------------------------|
|-7------(7)-3--|(3)-----------------------------|
|----------------|--------------------------------|
|----------------|--------------------------------|

2/4
|--------------------------------|----------------|
|--------------------------------|----------------|
|-----------------3--------------|-7------(7)-3--|
|---------------------0---1--(1)/|----------------|
|-1------------------------------|----------------|

4/4
|-----------------5--------------|--------------------------------|
|--------------------------------|--------------------------------|
|(3)-----------------------------|-----------------3-------3-2-0--|
|--------------------------------|--------------------------------|
|--------------------------------|-1------------------------------|

2/4 4/4
|----------------|-----------------5--------------|
|----------------|-----------------5--------------|
|-7------(7)-3--|(3)-----------------------------|
|----------------|--------------------------------|
|----------------|--------------------------------|

2/4
|--------------------------------|----------------|
|-----------------5p0------------|----------------|
|-----------------------7/8------|-7------(7)-3--|
|--------------------------------|----------------|
|-1------------------------------|----------------|

4/4
|--------------------------------|--------------------------------|
|--------------------------------|--------------------------------|
|(3)-----------------------------|(3)-----------------------------|
|--------------------------------|-------------------------1-1-1-1|
|--------------------------------|-----------------------1/-------|

Repeat Fig.1

Coda 1:
2/4
|--------------------------------|----------------|
|--------------------------------|-----------/10--|
|-----------------3--------------|-7--------------|
|---------------------0---1--(1)/|----------------|
|-1------------------------------|----------------|

4/4
|--------------------------------|--------------------------------|
|(10)----------------------------|(10)----------------------------|
|--------------------------------|--------------------------------|
|--------------------------------|-----------------------81-1-1-1|
|--------------------------------|--------------------------------|

Guitar Solo:
x 3
|--------------------------------|--------------------------------|
|*------------------------------*|--------------------------------|
|*------------------------------*|--------------------------------|
|-1---0---0-------0-0-0-0-1-1-1-1|-1---0---0-------0-0-0-0/3-3-3-3|
|--------------------------------|--------------------------------|

x 4 x 3
|--------------------------------|--------------------------------|
|*------------------------------*|*------------------------------*|
|*------------------------------*|*------------------------------*|
|-3p0-3---3-------3-3-3-0-3-3-3-3|-3---0---0------12------3-3-3-3|
|--------------------------------|--------------------------------|

2/4 4/4
|----------------|--------------------------------|
|----------------|-7-7---7-7-7-7-7-6-6---6-6-6-6-6|
|----------------|-5-5---5-5-5-5-5-4-4---4-4-4-4-4|
|-3---0---0------|--------------------------------|
|----------------|--------------------------------|

|--------------------------------|--------------------------------|
|-3-3---3-3-3-3-3----------------|-7-7---7-7-7-7-7-6-6---6-6-6-6-6|
|-1-1---1-1-1-1-1----------------|-5-5---5-5-5-5-5-4-4---4-4-4-4-4|
|-----------------0h3-3-3-3-3-3-3|--------------------------------|
|--------------------------------|--------------------------------|

|--------------------------------|--------------------------------|
|-3-3---3-3-3-3-3----------------|-7-7---7-7-7-7-7-6-6---6-6---6-6|
|-1-1---1-1-1-1-1----------------|-5-5---5-5-5-5-5-4-4---4-4---4-4|
|-----------------0h3-3-3-3-3-3-3|--------------------------------|
|--------------------------------|--------------------------------|

2/4 4/4
|----------------|--------------------------------|
|-9------(9)-5--|(5)-----------------------------|
|-7------(7)-3--|(3)-----------------------------|
|----------------|--------------------------------|
|----------------|--------------------------------|

|--------------------------------|--------------------------------|
|(5)-----------------------------|--------------------------------|
|(3)-----------------------------|-8/10-13----------------20202020|(20)
|--------------------------------|--------------------------------|
|--------------------------------|--------------------------------|

|--------------------------------|--------------------------------|
|--------------------------------|--------------------------------|
|20--19--19------2020202020202020|2019191919--1919--19----20202020|
|--------------------------------|-----------------0---0-0--------|
|--------------------------------|--------------------------------|

|--------------------------------:
|--------------------------------:
|2019----19----19--19----20202020:
|-0---0---0---0---0---0-0--------:
|--------------------------------:

Bridge:
x 3
|--------------------------------|--------------------------------|
|*------------------------------*|--------------------------------|
|2019----19----19--19----20202020|2019----19----19--17----17-----|
|*----0-0-0---0---0---0-0-------*|-----0-0-0---0---0---0-0--------|
|--------------------------------|--------------------------------|

x 3
|--------------------------------|--------------------------------|
|*------------------------------*|--------------------------------|
|-8-7-----7-----7---7-----8-8-8-8|-8-7-----7---7-7---7-5---5------|
|*----0-0-0---0---0---0-0-------*|-----0-0-0------h7-----7---7-5-3|
|--------------------------------|--------------------------------|

x 2
|--------------------------------|--------------------------------|
|*-------------------------------|-------------------------------*|
|*-------------------------------|-------------------------------*|
|-1-0-0---0---0-----0---0-1-1-1-1|-1-0-x-0-0---x-0---0-x-0-1-1-1-1|
|--------------------------------|--------------------------------|

|--------------------------------|--------------------------------:
|--------------------------------|-------------------5-----5------:
|--------------------------------|-----------7-7-7-7---7-7---7-7-7:
|-1-0-x-0---0---x-0-----0-1-1-1-1|-1-0-0-0-0----------------------:
|--------------------------------|--------------------------------:

PreChorus:

Repeat Fig.3 x 3

Coda 2:
2/4
|--------------------------------|----------------|
|--------------------------------|----------------|
|-----------------3--------------|-7-------(7)3--|
|---------------------0---1--(1)/|----------------|
|-1------------------------------|----------------|

4/4
|--------------------------------|--------------------------------:
|--------------------------------|--------------------------------:
|(3)-----------------------------|(3)-------------------(3)------:
|--------------------------------|-------------------------1-1-1-1:
|--------------------------------|--------------------------------:

Outro:

Repeat Fig.1 (First bar only) x 7 then

|--------------------------------|--------------------------------|
|--------------------------------|--------------------------------|
|--------------------------------|--------------------------------|
|-1---0---0-------0-0-0-0/3-3-3-3|-3p0-3---3-------3-3-3-0-3-3-3-3|
|--------------------------------|--------------------------------|

|--------------------------------|--------------------------------|
|--------------------------------|--------------------------------|
|--------------------------------|-----------------------/10101010|(10)
|-1---0---0-------0-0-0-0/3-3-3-3|-3---0---0-------0-0-0-0--------|
|--------------------------------|--------------------------------|

2/4 4/4
|----------------|----------------|--------------------------------|
|----------------|----------------|--------------------------------|
|10-7-7---7-----|-7------(7)-3--|(3)-----------------------------|
|-------------0--|----------------|--------------------------------|
|----------------|----------------|--------------------------------|

|--------------------------------:
|--------------------------------:
|(3)-----------------------------: End.
|--------------------------------:
|--------------------------------:

-----------------------------------------------------------------------







Related Metallica Bass Tabs

Enter Sandman (perfect) bass
Cliff Burton Memorial bass
Orion (bass Solos) bass
Turn The Page bass
Another Way To Intro In Enter Sandman bass
Until It Sleeps bass
Fade To Black (revised Version) bass
Metal Miltia. bass
Bleeding Me bass
Nothing Else Matters Tab bass
Imperial March bass
Bad Seed bass
The Four Horsemen bass
Poor Twisted Me bass
Anethesia bass
Four Horsemen bass
The Unforgiven bass
The Wait bass
Bass And Guitar Solo Tribute bass
The Black Album bass


Guitar Tabs




All tabs are property and copyright of their owners. All tabs provided for educational purposes only. Privacy Policy, DMCA, Links