Metallica

We Did It Again Tabs



More from Metallica

Metallica Tabs
Metallica Chords
Metallica Bass
Metallica Lyrics



----------------------------------------------------------------------

We did it again - Metallica ft. Ja Rule & Swizz

----------------------------------------------------------------------

Tabbed by: Nuums aka. Oscar

Email: webmaster at tabs-database.com.com



Album: Biker Boyz Original soundtrack



Tuning: Db-standard (Db, Gb, Cb, Fb, Ab, Db) - all strings 1 step down.



Gtr. I (Db, Gb, Cb, Fb, Ab, Db) - 'James Hetfield'

Gtr. II (Db, Gb, Cb, Fb, Ab, Db) - 'Kirk Hammet'



Intro riff:

Gtr.I + II 4x

Db---------------------------------------|

Ab---------------------------------------|

Fb*-----------2------2--2------4--4--4--*|

Cb*--2--2--5--2---5--2--2--5---4--4--4--*|

Gb---2--2--5--0---5--0--0--5---2--2--2---|

Db---0--0--3------3--------3-------------|



[Let's go!]



Main riff:

Gtr. I + II

Db----------------------|--------------------|---------------------|

Ab----------------------|--------------------|---------------------|

Fb*---------------------|--------------------|---------------------|

Cb*--6/8--8--8---8-8--8-|-6/8--8--8---8-8--8-|-6/8--8--8---8-8--8--|

Gb---4/6--6--6---6-6--6-|-4/6--6--6---6-6--6-|-4/6--6--6---6-6--6--|

Db----------------------|--------------------|---------------------|

PM . . . . . . . . . . . . . . . . . .

4x

Db------------------------|

Ab------------------------|

Fb-----------------------*| After 2nd time playing this,

Cb--6-8--5-6--3-5--------*| the versre starts.

Gb--4-6--3-4--1-3--6--8---|

Db-----------------4--6---|



Chorus:

Gtr.I + II 4x

Db---------------------------------------|

Ab---------------------------------------|

Fb*-----------2------2--2------4--4--4--*|

Cb*--2--2--5--2---5--2--2--5---4--4--4--*|

Gb---2--2--5--0---5--0--0--5---2--2--2---|

Db---0--0--3------3--------3-------------|



Main riff / Verse:

Gtr. I + II

Db----------------------|--------------------|---------------------|

Ab----------------------|--------------------|---------------------|

Fb*---------------------|--------------------|---------------------|

Cb*--6/8--8--8---8-8--8-|-6/8--8--8---8-8--8-|-6/8--8--8---8-8--8--|

Gb---4/6--6--6---6-6--6-|-4/6--6--6---6-6--6-|-4/6--6--6---6-6--6--|

Db----------------------|--------------------|---------------------|

PM . . . . . . . . . . . . . . . . . .

4x

Db------------------------|

Ab------------------------| After 2nd time playing the main riff,

Fb-----------------------*| the first three measures are played, and

Cb--6-8--5-6--3-5--------*| then the bass takes the last measure

Gb--4-6--3-4--1-3--6--8---| + One whole main riff, alone. Then the

Db-----------------4--6---| guitars comes in and plays 1 main riff.





Chorus:

Gtr.I + II 4x

Db---------------------------------------|

Ab---------------------------------------|

Fb*-----------2------2--2------4--4--4--*|

Cb*--2--2--5--2---5--2--2--5---4--4--4--*|

Gb---2--2--5--0---5--0--0--5---2--2--2---|

Db---0--0--3------3--------3-------------|





Main riff / Verse:

Gtr. I + II

Db----------------------|--------------------|---------------------|

Ab----------------------|--------------------|---------------------|

Fb*---------------------|--------------------|---------------------|

Cb*--6/8--8--8---8-8--8-|-6/8--8--8---8-8--8-|-6/8--8--8---8-8--8--|

Gb---4/6--6--6---6-6--6-|-4/6--6--6---6-6--6-|-4/6--6--6---6-6--6--|

Db----------------------|--------------------|---------------------|

PM . . . . . . . . . . . . . . . . . .

4x

Db------------------------|

Ab------------------------|

Fb-----------------------*| After 2nd time playing this,

Cb--6-8--5-6--3-5--------*| Kirks guitar fill starts.

Gb--4-6--3-4--1-3--6--8---|

Db-----------------4--6---|





I'm not 100% sure of the fill but it looks alot like it! :)

In fact Kirk Plays this almost throughout the whole song, using an effect.



Guitar fill / solo:

Gtr. II

Db----------------------------------------------------------------------|

Ab----------------------------------------------------------------------|

Fb*---11--13--11--13--11--13--13fb--11--11-----13---13fb--11--13fb--11--|

Cb*-----------------------------------------13--------------------------|

Gb----------------------------------------------------------------------|

Db----------------------------------------------------------------------|

2x

Db----------------------------------------------------------------------|

Ab----------------------------------------------------------------------|

Fb------11--13--11------11------13fb-(15)-(15)-(15)-(15)-(15)--11------*|

Cb--13--------------13------13-------------------------------------13--*|

Gb----------------------------------------------------------------------|

Db----------------------------------------------------------------------|





End Fill / Outro:

Gtr. I

Db----------------------|--------------------|---------------------|

Ab----------------------|--------------------|---------------------|

Fb*---------------------|--------------------|---------------------|

Cb*--6/8--8--8---8-8--8-|-6/8--8--8---8-8--8-|-6/8--8--8---8-8--8--|

Gb---4/6--6--6---6-6--6-|-4/6--6--6---6-6--6-|-4/6--6--6---6-6--6--|

Db----------------------|--------------------|---------------------|

PM . . . . . . . . . . . . . . . . . .

4x

Db------------------------|

Ab------------------------|

Fb-----------------------*| Begin to fade out after

Cb--6-8--5-6--3-5--------*| 3rd time playing this.

Gb--4-6--3-4--1-3--6--8---|

Db-----------------4--6---|





Gtr. II

(Fig.1)

Db----------------------------------------------------------------------|

Ab----------------------------------------------------------------------|

Fb*---11--13--11--13--11--13--13fb--11--11-----13---13fb--11--13fb--11--|

Cb*-----------------------------------------13--------------------------|

Gb----------------------------------------------------------------------|

Db----------------------------------------------------------------------|

2x

Db----------------------------------------------------------------------|

Ab----------------------------------------------------------------------|

Fb------11--13--11------11------13fb-(15)-(15)-(15)-(15)-(15)--11------*|

Cb--13--------------13------13-------------------------------------13--*|

Gb----------------------------------------------------------------------|

Db----------------------------------------------------------------------|

(Fig.2) 3x

Db----------------------------------------------------------------------|

Ab---11-----11----11----11----11----11----11--------11------------------|

Fb*--13b---(14)--(14)--(14)--(14)--(14)--(14)---13------13--11---------*|

Cb*---------------------------------------------------------------13---*|

Gb----------------------------------------------------------------------|

Db----------------------------------------------------------------------|

Play this the 4th time, and play Fig.2 again

Db----------------------------------------------------------------------||

Ab----------------------------------------------------------------------||

Fb--11~------------------11---13---13fb---11---------------------------*||

Cb--------13----11---13------------------------------------------------*||

Gb----------------------------------------------------------------------||

Db----------------------------------------------------------------------||





That's it, the only cool rap-song made :P



Tab Key:



PM.. = Palm mute

/ = Slide up

b = Bend

fb = Full bend

(*) = Bended note

--------

Added by tabs-database.com and our distinguished partners

Related Metallica Tabs

Whiskey In The Jar Part 1 tabs
Damage Case tabs
Trapped Under Ice Solo tabs
Overkill tabs
The Wait tabs
Eye Of The Beholder Intro tabs
Entersandman tabs
The Four Horse Men tabs
Unforgiven II (2) tabs
Bass And Guitar Doodle tabs
Too Late Too Late tabs
Purify Bass tabs
Battery tabs
Am I Evil 3 tabs
Star Wars Imperial March tabs
Waisting My Hate (intro) tabs
Follow Me tabs
The Struggle Within,correct(rate) tabs
Frantic tabs
Astronomy tabs


Guitar Tabs




All tabs are property and copyright of their owners. All tabs provided for educational purposes only. Privacy Policy, DMCA, Links