Metallica

Wait Tabs



More from Metallica

Metallica Tabs
Metallica Chords
Metallica Bass
Metallica Lyrics

From alt.guitar.tab Wed Nov 24 10:32:51 1993

Xref: news.tcd.ie alt.guitar.tab:14906 rec.music.makers.guitar.tablature:9128

Subject: TAB: "The Wait" -- Mctallica

X-Disclaimer: Nyx is a public access Unix system run by the University

of Denver for the Denver community. The University has neither

control over nor responsibility for the opinions of users.



Key: | > >>

o'. = dotted half / = quarter / = eighth / = 16th



Intro:





| | > >> > >> > >> > >> >> >> >> >>

o'. / o'. / / / / / / / / / / / / /

-----------|----------|------------------------------------------------------|

-----------|----------|------------------------------------------------------|

-----------|----------|*--------------------------------------------------0-*|

---------3-|-------3--|*-2-----x---2-----x---2-----x---2-----x---------3----*|

-----------|----------|--2-----x---2-----x---2-----x---2-----x------3--------|

<2>p0------|--0-------|--0-----x---2-----x---2-----x---2-----x---1-----------|

^\ P.M. ^^^^^^^^^^

\







Main:

>> >> >> >> > >> > >> > >> > >> >> >> >> >> >> >> >> >

/ / / / / / / / / / / / / / / / / / / /

------|--------------------------------------------------|------------------

------|--------------------------------------------------|------------------

------|*----------------------------------------------0--|------------------

---2--|*-2--x-----2----x--2----x--2----x--2--------3-----|--x--2--x-----2---

---2--|--2--x-----2----x--2----x--2----x--2-----3--------|--x--2--x-----2---

---0--|--0--x--3--0----x--0----x--0----x--0--1-----------|--x--0--x--3--0---

P.M.^^^^^^^^^^^^





>> >> >> >> >> >> >> >> >> >> >>

/ / / / / / / / / / /

-------------------------------------|

-------------------------------------| repeat several times.

------------------------------------*|

---x--2--x--2--x--2--3--3--3--3--3--*|

---x--2--x--2--x--2--3--3--3--3--3---|

---x--0--x--0--x--0--1--1--1--1--1---|

P.M.^^^^^^^^^^^^^







|Chorus (Gtr. 1) -- part 1:

|---------------------------------------------------------------------|

|---------------------------------------------------------------------|

|---2----------------4----------------5----------------10--------\----|

|---2----------------4----------------5----------------10--------\----|

|---0----------------2----------------3----------------8---------\----|

|---------------------------------------------------------------------|

| |

|Chorus (Gtr. 2) -- part 1: |

|---------------------------------------------------------------------|

|---------------------------------------------------------------------|

|---2----------------4----------------5-------------------------------|

|---2----------------4----------------5----------------3--------------|

|---0----0--0-----0--2----2--2--0--2--3----3--3--2--0--3--------------|

|--------------3---------------------------------------1--------------|

P.M.^^^^^^^^^^ P.M.^^^^^^^^^^ P.M.^^^^^^^^^^







|Gtr 1 -- part 2:

|---------------------------------------------------------------------|

|---------------------------------------------------------------------|

|---2---------------4---------------5---------------------------------|

|---2---------------4---------------5-----------------3---------------|

|---0---------------2---------------3-----------------3---------------|

|-----------------------------------------------------1---------------|

|

|Gtr. 2:







|Both Gtrs -- part 3:

|---------------------------------------------------------------------|

|---------------------------------------------------------------------|

|---2---------------4---------------5------------------10------\------|

|---2---------------4---------------5------------------10------\------|

|---0---------------2---------------3------------------8-------\------|

|---------------------------------------------------------------------|











Pre-solo:

|--------------------------------------------------------------------------|

|--------------------------------------------------------------------------|

|*---10-\--9----------------------10-\--9------14-\-13--------10-\--9------|

|*-----------------10-\--9-------------------------------------------------|

|----8--\--7----------------------8--\--7------12-\-11--------8--\--7------|

|------------------8--\--7-------------------------------------------------|



_____________________________________ ________________________________

1. \ / 2. \

-----------------------------------------|-----------------------------------|

-----------------------------------------|-----------------------------------|

---10-\--9-------14-\-13-------17-\-16--*|--14-\-13-----17-\-16-----22-\-21--|

----------------------------------------*|-----------------------------------|

---8--\--7-------12-\-11-------15-\-14---|--12-\-11-----15-\-14-----20-\-19--|

-----------------------------------------|-----------------------------------|





Solo:



1.25 1.25 <-- bend up this much 1.25 1.25

------------------------------------------------------------15-\--------

---15^----15^------12-\----------------15^-----15^----------15-\--------

-------------------12-\-------------------------------------------------

------------------------------------------------------------------------

------------------------------------------------------------------------

------------------------------------------------------------------------







Still working on the second solo....



Play with lots of muting and downpicking throughout. Kill those strings! ;)



-Legion

--

_____________________________________________________________________________

| "I am of the opinion that anyone in politics can rise very quickly to the |

| top if they are not weighed down by talent or integrity..." |

:___________________________R. Chetwynd-Hayes_______________________________:



Related Metallica Tabs

Dirty Window tabs
Nothing Else Matters Into tabs
And Justice For All Intro tabs
Star Wars Imperial March tabs
Hero Of The Day tabs
2x4 (full Tab) tabs
For Whomb The Bell Tolls tabs
Eye Of The Beholder Intro tabs
Mama Said Acoustic tabs
The Prince tabs
Man In The Box tabs
Dick Rash tabs
Orion tabs
Fade To Black tabs
Live Shit tabs
Am I Evil2 tabs
Melbourne Live tabs
No Remorse tabs
Devils Dance tabs
Tread On Me tabs


Guitar Tabs




All tabs are property and copyright of their owners. All tabs provided for educational purposes only. Privacy Policy, DMCA, Links