Metallica

Waisting My Hate (intro) Tabs



More from Metallica

Metallica Tabs
Metallica Chords
Metallica Bass
Metallica Lyrics



METALLICA
WAISTING MY HATE
ALBUM-LOAD

TABBED BY BILLY MILNE
EADGBE

INTRO
E-------------------------------------------------
B-------------------------------------------------
G-------------------------------------------------
D-------------------------------------------------
A----------5-7-7--7-5---5-5------5----------------
E-0-0--5-7------------7------5-7---5-5--0-3/-5----

E-------------------------------------------------
B-------------------------------------------------
G-------------------------------------------------
D-------------------------------------------------
A----------5-7-7--7-5---5-5------5----------------
E-0-0--5-7------------7------5-7---5-5---5-3-0----



Related Metallica Tabs

Unforgiven II (2) tabs
Whiplash tabs
Cure tabs
Live Shit tabs
Sucking My Love tabs
St. Anger tabs
Off To Never Never Land tabs
Damage Case tabs
Fuel tabs
Gone With You tabs
Unforgiven 2 Live tabs
Low Man's Lyric tabs
Hell And Back tabs
Master Of Puppets tabs
Last Carress tabs
The Four Horsemen tabs
53 and 3rd tabs
Never Never Land tabs
Am I Evil3 tabs
Requiem For A Marionette tabs


Guitar Tabs




All tabs are property and copyright of their owners. All tabs provided for educational purposes only. Privacy Policy, DMCA, Links