Metallica

Tuesday's Gone Tabs



More from Metallica

Metallica Tabs
Metallica Chords
Metallica Bass
Metallica Lyrics



^ = bend
r = release
h = hammer on
p = pull off

|--------------------------------------------------------------------|
|-14----14----14^r----12~~~----12^r----12----10~~----10--10^r----7~~-|
|-11-----------------------------------------------------------------|
|-------11^r-----------9~~~-----9^r-----9-----7~~---------7^r----4~~-|
|--------------------------------------------------------------------|
|--------------------------------------------------------------------|

|--------------------------------------------------------------------|
|-7/10--10/12--12/14--14~~~----14^r----14----12----12^rp10-----------|
|--------------------------------------------------------------------|
|-4/7----7/9----9/11--11~~~----11^r----11-----9----------------------|
|--------------------------------------------------------------------|
|--------------------------------------------------------------------|

|----12---------12---------12----------------------------------------|
|--------15---------15---------15------------------------------------|
|--------------------------------------------------------------------|
|-0----------0----------0------------0-----2-----0-------------------|
|---------------------------------------4-----2----------------------|
|--------------------------------------------------------------------|


|--------------------------------------------------------------------|
|--------------------------------------------------------------------|
|-2~~--4^^r--4^r-------4^--4^--4^rp2------------2--------------------|
|-----------------2~~-----------------4~~--4~~-----------------------|
|--------------------------------------------------4/54/54---------|
|--------------------------------------------------------------------|

|--------------------------------------------------------------------|
|----------------5----5-------5~~--5/7--5--3-------------------------|
|-----------2h4--4^^--4^r--2--4~~--4/6--4--2-------------------------|
|------2h4-----------------------------------------------------------|
|-2h4----------------------------------------------------------------|
|--------------------------------------------------------------------|

A5 E5
|----0--------0--------0----------------------5----------------------|
|-------3--------3--------3----2h3h5--2-------5----------------------|
|----------------------------------------2---------------------------|
|-0--------0--------0------------------------------------------------|
|--------------------------------------------------------------------|
|--------------------------------------------------------------------|
Train roll on...

F#5 D Dsus2 D Dsus2 A5
|--------------------------------------------------------------------|
|--------------------------------------------------------------------|
|--------------------------------------------------------------------|
|--------------------------------------------------------------------|
|--------------------------------------------------------------------|
|--------------------------------------------------------------------|
on down the line Won't you

E5 Dsus2 A5
|-------------------------------------------0--------0--------0------|
|----------------------------------------------3--------3--------3---|
|--------------------------------------------------------------------|
|----------------------------------------0--------0--------0---------|
|--------------------------------------------------------------------|
|--------------------------------------------------------------------|
please take me far far away??

E5 D Dsus2 D Dsus2
|--------------------------------------------------------------------|
|--------------------------------------------------------------------|
|--------------------------------------------------------------------|
|--------------------------------------------------------------------|
|--------------------------------------------------------------------|
|--------------------------------------------------------------------|
Now i feel the wind blow outside my door Lord I'm,

A5 E5
|--------------------------------------------------------------------|
|--------------------------------------------------------------------|
|--------------------------------------------------------------------|
|--------------------------------------------------------------------|
|--------------------------------------------------------------------|
|--------------------------------------------------------------------|
i'm leaving my woman at

Dsus2
|----0--------2--------3--2-----5--5---------------------------------|
|-------3--------3--------3--------3---------------------------------|
|--------------------------------------------------------------------|
|-0--------0--------0--------0---------------------------------------|
|--------------------------------------------------------------------|
|--------------------------------------------------------------------|
home oh yeah

A5 G
|--------------------------------------------------------------------|
|--------------------------------------------------------------------|
|--------------------------------------------------------------------|
|--------------------------------------------------------------------|
|--------------------------------------------------------------------|
|--------------------------------------------------------------------|
Tues - day's gone with the

D Dsus2 D A5
|--------------------------------------------------------------------|
|--------------------------------------------------------------------|
|--------------------------------------------------------------------|
|--------------------------------------------------------------------|
|--------------------------------------------------------------------|
|--------------------------------------------------------------------|
wind yeah

E5
|----------------------------0----------------------------------------|
|---------------------------------0-----------------------------------|
|--------------------------------------1------------------------------|
|-------------------------------------------2-------------------------|
|------------------------------------------------2--------------------|
|-----------------------0---------------------------------------------|
My baby's gone gone with the

Dsus2
|----0--------0--------0----------------------------------------------|
|-------3--------3--------3-------------------------------------------|
|-----------------------------------------4^r^r----4^r----------------|
|-0--------0--------0-------------------------------------------------|
|---------------------------------------------------------------------|
|---------------------------------------------------------------------|
wind Long gone


|--------------------------------------------------------------------|
|--------------------------5-----------------------------------------|
|-2----4^^r--4^r-------4^-----4--rp2--4---------------2--------------|
|-----------------2~~--------------------4~~--4~~--4-----------------|
|--------------------------------------------------------4/54/54---|
|--------------------------------------------------------------------|

|--------------------------------------------------------------------|
|---------------------------------------------5/7--5--3--------------|
|-----------2h4--4^--4^--4--rp2----4/64~~----4/6--4--2--------------|
|------2h4-----------------------------------------------------------|
|-2h4----------------------------------------------------------------|
|--------------------------------------------------------------------|

Well, there's most of it, i'll probably put the solo in later...


Related Metallica Tabs

One *complete* tabs
Master Of Puppets (album) tabs
Orion Bass tabs
Hit The Lights tabs
Cretin Hop tabs
Disposable Heroes Solo tabs
One-100% Correct! tabs
Unforgiven (100 % Perfect!!!) tabs
Unforgiven tabs
Mama Said tabs
For Whomb The Bell Tolls tabs
The Struggle Within tabs
Enter Sandman tabs
Phantom Lord tabs
Am I Evil2 tabs
Enter Sandman Solo tabs
Damage Inc tabs
One Solo tabs
Of Wolf And Man (gtr1 & Gtr2) tabs
Anesthesia tabs


Guitar Tabs




All tabs are property and copyright of their owners. All tabs provided for educational purposes only. Privacy Policy, DMCA, Links