Metallica

Tuesday's Gone Bass Tabs



More from Metallica

Metallica Tabs
Metallica Chords
Metallica Bass
Metallica Lyrics



Metallica
Tuesdays Gone
Garage Inc.
Tabbed by MattW

Intro: x 12
:---------------------|---------------------|---------------------|
:---------------------|---------------------|*------Guitar-------*|
:---------------------|---------------------|*-------------------*|
:---------------------|---------------------|---------------------|
One, two, three. One, two, three.

x 3
|---------------------|---------------------:
|*------12------7----*|---------------------:
|*-------------------*|---------------------:
|---------------------|---------------0-h-2-: end Intro

Guitar Solo 1:
:---------------------|---------------------|---------------------|
:---------------------|---------------------|---------------------|
:---------------------|---------------------|---------------------|
:-5-------------------|-5-----(5)----------|-0-------------------|

|---------------------|---------------------|---------------------|
|---------------------|---------------------|---------------------|
|-7-------------------|---------------------|---------------------|
|---------------0---1-|-2-------------------|-2-----------4h5-----|

|---------------------|---------------------|---------------------|
|---------------------|---------------------|---------------------|
|-5-p-4--5-p-4--5-p-4-|-5------5------------|---------------------|
|---------------------|---------------5---3-|-5-------------------|

|---------------------|---------------------|---------------------|
|-7-------------------|---------------------|---------------------|
|---------------------|---------------------|---------------------|
|--------5---5----2---|-0------0------0-----|-0----------2--5-/-7-|

|---------------------|---------------------|---------------------|
|---------------------|-7-------------------|-7-------------------|
|-5------5------5-----|--------5------5-----|--------5------5-----|
|---------------------|---------------------|---------------------|

|---------------------:
|-7-------------------:
|---------------------:
|---------------------: end Guitar Solo 1

Verse 1:
|---------------------|---------------------|---------------------|
|---------------------|---------------------|---------------------|
|---------------------|---------------------|---------------------|
|-5-------------------|-5---------5---5----|-0-------------0-----|

|---------------------|---------------------|---------------------|
|---------------------|---------------------|---------------------|
|-7-------------------|---------------------|---------------------|
|--------0------7--0-|-2-------------------|-2---------2--2---5--|

|---------------------|---------------------|---------------------|
|---------------------|---------------------|---------------------|
|-5---------5--5---3--|-5---------5---------|---------------------|
|---------------------|--------------0---3--|-5-------------------|

|---------------------|---------------------|---------------------|
|---------------------|---------------------|---------------------|
|---------------------|---------------------|-7------------7--0--|
|-5---------5---5-----|-0-------------0-----|-----------0---------|

|---------------------|---------------------|---------------------|
|---------------------|-7-------------------|-7-------------------|
|-5------5------5-----|--------5------5-----|--------5------5-----|
|---------------------|---------------------|---------------------|

|---------------------|---------------------|---------------------|
|-------------4---5---|---------------------|-7---------7--(7)---|
|-5------5------------|---------------------|---------------5----|
|---------------------|-5-------------5-----|---------------------|

|---------------------|---------------------|---------------------|
|---------------------|---------------------|---------------------|
|---------------------|-7-------------------|---------------------|
|-0------0------0-----|------0---0--2---0---|-2----2---2--2---2---|

|---------------------|---------------------|---------------------|
|---------------------|---------------------|---------------------|
|---------------------|-5------5------5-----|-5-------------------|
|-2-----------5---7---|---------------------|-------------0---3---|


|---------------------|---------------------|---------------------|
|---------------------|---------------------|---------------------|
|---------------------|---------------------|---------------------|
|-5-------------5-----|-5--------5----5-----|-0-------------0-----|


|---------------------|---------------------|---------------------|
|---------------------|---------------------|---------------------|
|-7-------------------|-5------5------5-----|-5--------5----5-----|
|-----------0--5-/-7--|---------------------|---------------------|


|---------------------|---------------------:
|---------------------|-----------------5---:
|-5----5---5--5---5---|-5------5----7-------:
|---------------------|---------------------: end Verse 1

Chorus 1:
:---------------------|---------------------|---------------------|
:---------------------|---------------------|---------------------|
:---------------------|---------------------|---------------------|
:-5------5------5-----|-5--------5----5----|-3------3------3-----|


|---------------------|---------------------|---------------------|
|-5-------------------|---------------------|-7-------------------|
|---------------------|-5------5------5-----|-5--------5----5-----|
|---------3---5-/-7---|---------------------|---------------------|


|---------------------|---------------------|---------------------|
|-7-------------------|-7-------------------|---------------------|
|-5-----------5---5---|-5------5------------|---------------------|
|---------------------|-------------0---3---|-5------5------5-----|


|---------------------|---------------------|---------------------|
|---------------------|---------------------|---------------------|
|---------------------|---------------------|-7-------------------|
|-5--------5----5----|-0------0------0-----|----------0--5-/-7---|


|---------------------|---------------------|---------------------|
|---------------------|-7-------------------|-7-------------------|
|-5------5------5-----|-5--------5----5-----|-5--------5----5-----|
|---------------------|---------------------|---------------------|


|---------------------:
|-7-------------------:
|-5-------------------:
|---------------------: end Chorus 1

Guitar Solo 2:
:---------------------|---------------------|---------------------|
:---------------------|---------------------|---------------------|
:---------------------|---------------------|---------------------|
:-5-------------------|-5------------(5)---|-0-------------------|

|---------------------|---------------------|---------------------|
|---------------------|---------------------|-4-------------------|
|-7-------------------|---------------------|---------------------|
|---------------0-----|-2-------------2-----|-------------2---0---|

|---------------------|---------------------|---------------------|
|---------------------|---------------------|---------------------|
|-5-p-4--5-p-4--5-p-4-|-5-------------------|---------------------|
|---------------------|-------------0---3---|-5-------------------|

|---------------------|---------------------|---------------------|
|---------------------|---------------------|---------------------|
|---------------------|---------------------|-7-------------------|
|-5--------5--5---2---|-0-----------0---0---|-0--------0----2--/--|

|---------------------|---------------------|---------------------|
|--------7----7---7---|--------7----7---7---|--------7----7---7---|
|-5------5----5---5---|-5------5----5---5---|-5------5----5---5---|
|---------------------|---------------------|---------------------|

|---------------------:
|---------------------:
|-5------5------------:
|-------------0---2---: end Guitar Solo 2

Verse 2, 3:
:---------------------|---------------------|---------------------|
:---------------------|---------------------|---------------------|
:---------------------|---------------------|---------------------|
:-5-------------------|-5------------(5)---|-0-------------0-----|

|---------------------|---------------------|---------------------|
|---------------------|---------------------|---------------------|
|-7-------------------|---------------------|-4-------------------|
|----------0---0---0--|-2-------------2-----|-----------2---5-/-7-|

|---------------------|---------------------|
|---------------------|---------------------|
|-5------5------5-----|-5------5------5--3-|
|--------5------5-----|-5-------------------|

|---------------------|---------------------|---------------------|
|---------------------|---------------------|---------------------|
|---------------------|---------------------|---------------------|
|-5-------------------|-5---------5---5-----|-0-------------0-----|

|---------------------|---------------------|---------------------|
|---------------------|---------------------|-7--------7--7---7---|
|-7-------------------|-5------5------5-----|-5--------5--5---5---|
|-----------0---0-----|---------------------|---------------------|

|---------------------|---------------------|---------------------|
|-7--------7--7---7---|-7------7------------|---------------------|
|-5--------5--5---5---|-5------5------------|---------------------|
|---------------------|-------------0---3---|-5-------------------|

|---------------------|---------------------|---------------------|
|---------------------|---------------------|---------------------|
|---------------------|---------------------|-7-------------------|
|-5------------(5)---|-0-----------0---0---|--------0----0----0--|

|---------------------|---------------------|---------------------|
|---------------------|---------------------|---------------------|
|---------------------|-4-------------------|-5----5---5---5---5--|
|-2------2------2-----|----------2--5-/-7---|---------------------|

|---------------------|---------------------|---------------------|
|-7------7------------|---------------------|---------------------|
|-5------5------------|---------------------|---------------------|
|-------------0---3---|-5-------------5-----|-5----------5--5----|

|---------------------|---------------------|---------------------|
|---------------------|---------------------|--------7----7---7---|
|---------------------|-7-------------------|-5------5----5---5---|
|-0-----------0---0---|-0-----------5-/-7---|---------------------|

|---------------------|---------------------|---------------------:
|-7--------7--7---7---|-7--------7--7---7---|-7------7------------:
|-5--------5--5---5---|-5--------5--5---5---|-5------5------------:
|---------------------|---------------------|-------------0---3---:

Chorus:
:---------------------|---------------------|---------------------|
:---------------------|---------------------|---------------------|
:---------------------|---------------------|---------------------|
:-5----------5--5-----|-5---------5---5----|-3-------------------|

|---------------------|---------------------|---------------------|
|---------------------|---------------------|-7-------------------|
|---------------------|-5------5------5-----|-5--------5----5-----|
|-3-----------5-/-7---|---------------------|---------------------|

|---------------------|---------------------|---------------------|
|-7--------7--7---7---|-7------7------------|---------------------|
|-5--------5--5---5---|-5------5----5--3---|---------------------|
|---------------------|---------------------|-5------5------5-----|

|---------------------|---------------------|---------------------|
|---------------------|---------------------|-5-------------------|
|---------------------|---------------------|---------------------|
|-5--------5----5----|-3------3------3-----|--------3------3-----|

|---------------------|---------------------|---------------------|
|---------------------|---------------------|---------------------|
|-5---------5---5-----|-5---------5---5--5--|-5-----------5---5---|
|---------------------|---------------------|---------------------|

|---------------------|---------------------|---------------------|
|---------------------|---------------------|---------------------|
|-5------5------------|---------------------|---------------------|
|-------------0---3---|-5------5------5-----|-5---------5---5----|

|---------------------|---------------------|---------------------|
|---------------------|-5-------------------|---------------------|
|---------------------|---------------------|-5------5------5-----|
|-3------3------3-----|--------3------3-----|---------------------|

|---------------------|---------------------|---------------------|
|---------------------|-7--------7----------|---------------------|
|-5---------5---5--5--|-5--------5--5---5---|-5------5----7-------|
|---------------------|---------------------|-----------------0---|

|---------------------|---------------------|---------------------|
|---------------------|---------------------|---------------------|
|---------------------|---------------------|---------------------|
|-5-------------5-----|-5------5------5-----|-0-------------0-----|

|---------------------|---------------------|---------------------|
|---------------------|---------------------|-7-------------------|
|-7-------------------|-5---------5---5--5--|-5------5------5-----|
|-----------0--5-/-7--|---------------------|---------------------|

|---------------------|---------------------:
|---------------------|---------------------:
|-5------5------5-----|-5-------------------:
|---------------------|-5------0------3-----:

Harmonica Solo:
:---------------------|---------------------|---------------------|
:---------------------|---------------------|---------------------|
:---------------------|---------------------|---------------------|
:-5-------------5-----|-5----------5--5----|-0-------------0-----|

|---------------------|---------------------|---------------------|
|---------------------|---------------------|-4-------------------|
|-7-------------------|---------------------|---------------------|
|-0----------0--0-----|-2-------------2-----|------------2--5-/-7-|

|---------------------|---------------------|---------------------|
|---------------------|---------------------|---------------------|
|-5------5-p-4--5-p-4-|-5------5---5--5-----|---------------------|
|---------------------|------------------3--|-5-------------5-----|

|---------------------|---------------------|---------------------|
|---------------------|---------------------|---------------------|
|---------------------|---------------------|-7-------------------|
|-5----------5--5--5--|-0-------------------|------------0--0---1-|

|---------------------|---------------------|---------------------|
|---------------------|---------------------|---------------------|
|---------------------|---------------------|---------------------|
|-2------2------2-----|-2------2--2--2--2---|-3------3------3-----|

|---------------------|---------------------|---------------------|
|---------------------|---------------------|---------------------|
|---------------------|---------------------|---------------------|
|-3------3------3--4--|-5----------5--5-----|-5----------5--5----|

|---------------------|---------------------|---------------------|
|---------------------|---------------------|---------------------|
|---------------------|-7-------------------|---------------------|
|-0----------0--0---0-|------------0--0---0-|-2------2---2--2---2-|

|---------------------|---------------------|---------------------|
|-4-------------------|---------------------|---------------------|
|---------------------|-5-p-4--5---4--5---4-|-5------5--3--5------|
|--------2------2-5/7-|---------------------|-----------------0---|

|---------------------|---------------------|---------------------|
|---------------------|---------------------|---------------------|
|---------------------|---------------------|---------------------|
|-5----------5--5-----|-5----------5--5----|-0------------0------|

|---------------------|---------------------|---------------------|
|---------------------|---------------------|---------------------|
|-7----------7--------|-5-------------------|---------------------|
|---------------5-/-7-|--------2------2-----|-2------2-----2---2--|

|---------------------|---------------------:
|---------------------|---------------------:
|---------------------|---------------------:
|-3---3--3---3--3---3-|-3------3------3-----:

Coda 1:
|---------------------:
|---------------------:
|-5-------------------:
|---------------0---3-:

Coda 2:
|---------------------|---------------------|---------------------|
|---------------------|---------------------|---------------------|
|-5------5---3--5---3-|-5----5---3----------|---------------------|
|---------------------|-------------0--0--3-|-5-------------5-----|

|---------------------|---------------------|---------------------|
|---------------------|---------------------|---------------------|
|---------------------|---------------------|-7-------------------|
|-5------5------5-----|-0-------------0---0-|-0-------------5-/-7-|

|---------------------|---------------------|---------------------|
|---------------7-----|-7-------------------|---------------------|
|-5------5------5-----|-5-----------5-5-----|-5------5------------|
|---------------------|---------------------|---------------0---3-|

Interlude:
|---------------------|---------------------|---------------------|
|*--------------------|---------------------|---------------------|
|*--------------------|---------------------|---------------------|
|-5------5---5--5---5-|-5----------5--5-----|-0-------------------|

|---------------------|---------------------|---------------------|
|---------------------|--------7------7-----|-7----------7--7---7-|
|-7-------------------|-5------5------5-----|-5----------5--5---5-|
|------------0--5-/-7-|---------------------|---------------------|

1.
|-7-------------------|-7-------------------|
|-7-------------------|-7------------------*|
|-5----5---5--5---5---|-5----5---5---------*|
|---------------------|-------------0---3---|

2.
|-7-------------------|---------------------|
|-7-------------------|--------------------*|
|-5----5---5--5---3---|-5------5-----------*|
|---------------------|-------------0---3---|

3.
|---------------------|---------------------|
|---------------------|--------------------*|
|-5----5---5--5---3---|-5----5---5---------*|
|---------------------|-------------0---3---|

4.
|-7------7------7-----|-7------7------------:
|---------------------|---------------------:
|-5------5------5-----|-5------5----5-------:
|---------------------|-----------------0---:

Guitar Solo 3:
|---------------------|---------------------|---------------------|
|*--------------------|---------------------|---------------------|
|*--------------------|---------------------|---------------------|
|-5------5------5-----|-5------5---5--5-----|-0------0------0-----|

|---------------------|---------------------|---------------------|
|---------------------|---------------7-----|-7------7----7---7---|
|-7-------------------|-5------5------5-----|-5------5----5---5---|
|--------0------0---5-|---------------------|---------------------|

4 Times
|---------------------|---------------------|---------------------|
|-7------7------7-----|-7------7-----------*|---------------------|
|-5------5------5-----|-5------5-----------*|---------------------|
|---------------------|---------------0---3-|-5------5----5---5---|

|---------------------|---------------------|---------------------|
|---------------------|---------------------|---------------------|
|---------------------|---------------------|-7-------------7----|
|-5----5---5----5-----|-0------0------0-----|--------0------------|

|---------------------|---------------------|---------------------|
|---------------------|---------------------|---------------------|
|-5------5------5-----|-5--------5--5---3---|-5------5----5---3---|
|---------------------|---------------------|---------------------|

|---------------------|---------------------|---------------------|
|---------------------|---------------------|---------------------|
|-5------5------------|---------------------|---------------------|
|---------------0---3-|-5------5------5-----|-5----------5--5--/--|

|---------------------|---------------------|---------------------|
|---------------------|---------------------|---------------7-----|
|-7-------------------|---------------9--7-|-5------5------5-----|
|-0-------------0-----|-0-------------------|---------------------|

|---------------------|---------------------|---------------------:
|-7------7------7-----|-7--------7--7---7---|-7-------------------:
|-5------5------5-----|-5--------5--5---5---|-5-------------------:
|---------------------|---------------------|---------------0---3-:

Outro:
|---------------------|---------------------|---------------------|
|---------------------|---------------------|---------------------|
|---------------------|---------------------|-7-------------------|
|-5-------------------|-5--------5--5-/-7---|---------------------|

|---------------------|---------------------|---------------------|
|---------------------|--------------12-----|--------------12-----|
|-7------7------7-----|-------12------------|-------12------------|
|---------------------|---------------------|---------------------|

|--------------11-----|-------11------------|---------------------|
|-------12------------|12------------12----|---------------------|
|---------------------|---------------------|---------------------|
|---------------------|---------------------|--------5------------|

|---------------------|---------------------|---------------------|
|---------------------|---------------------|---------------------|
|---------------------|---------------7-----|---------------------|
|-5-------------------|-0-------------------|-0-------------------|

|---------------------|-7-------------------|---------------------|
|--------7------------|---------------7---5-|---------------------|
|-5-------------5-----|---------------------|-5-------------------|
|---------------------|---------------------|---------------------|

4/4
|---------------------|--------------------------------|
|---------------------|--------------------------------|
|-5-------------------|-----------------7--------------|
|--------3------4-----|-5------------------------------|

|--------------------------------|--------------------------------|
|--------------------------------|--------11----------------------|
|-7--------------(7)------/------|12--------------12--------------|
|--------------------------------|--------------------------------|

|--------------------------------|--------------------------------|
|----11--------11--------11------|--------------------------------|
|12----------12--12----------12--|--------------------------------|
|--------------------------------|--------------------------------|

|-x------------------------------:
|--x-----------------------------:
|---x----------------------------:
|----X---------------------------: End

Taken from The BassMasta -- http://www.tabs-database.com



Related Metallica Bass Tabs

Trapped Under Ice bass
Ride The Lightning bass
Unforgiven bass
Merciful Fate bass
So F***ing What(corrected) bass
One bass
The Thing That Should Not Be bass
Master Of Puppets (entire Record!!!!) bass
The house that jack built bass
Slither bass
All Within My Hands bass
Bass Solo Seattle 1989 bass
Orion bass
Enter Sandman bass
The Outlaw Thorn bass
Friend Of Mysery bass
The House Jack Built bass
Through The Never bass
Master Of Puppets( Easier 2 Play) bass
Anasthesia (Pulling Teeth) bass


Guitar Tabs




All tabs are property and copyright of their owners. All tabs provided for educational purposes only. Privacy Policy, DMCA, Links