Metallica

The Things That Should Not Be Tabs



More from Metallica

Metallica Tabs
Metallica Chords
Metallica Bass
Metallica Lyrics

The Thing That Should Not Be
by MetallicA
tabbed by MikeBovier@esp.zzn.com

Droppped "D" Tuning

-
E :----|----------------|----------------|----------------|
B :----|----------------|----------------|----------------|
G :----|----------------|----------------|----------------|
D :----|----------------|----------------|----------------|
A :--0-|2---------------|--------------0-|2---------------|
D :--0-|2---------------|--------------0-|2---------------|


|----------------|----------------|----------------|----------------|
|----------------|----------------|----------------|----------------|
|----------------|----------------|----------------|----------------|
|----------------|----------------|----------------|----------------|
|--------------0-|2-----1-------2-|------3-------0-|2-----1-------2-|
|--------------0-|2-----------2---|----2---------0-|2-----------2---|


|----------------|| ----------------|---------------- 3||
|----------------|| ----------------|---------------- |||
|----------------||*------3-------4-|------5---------*|||
|----------------||*------3-------4-|------5---------*|||
|------3-------0-|| 0-1-2-1-------2-|------3-------0- |||
|----2---------0-|| 0-1-2-------2---|----2---------0- |||


|| ----------------|---------------- 1|----------------|
|| ----------------|---------------- ||----------------|
||*------3-------4-|------5---------*||--------5---5---|
||*------3-------4-|------5---------*||--------5---5---|
|| 0-1-2-1-------2-|------3-------0- ||7-7-7-7---7-----|
|| 0-1-2-----1-2---|--1-2-----1-2-0- ||7-7-7-7---7-----|


|----------------|----------------|----------------|----------------|
|----------------|----------------|----------------|----------------|
|1-------1---1---|2-------2---2---|4---------------|----------------|
|1-------1---1---|2-------2---2---|4---------------|2---------------|
|--3-3-3---3-----|--4-4-4---4-----|--1-1-1-1-1-1-1-|2---------------|
|--3-3-3---3-----|--4-4-4---4-----|--1-1-1-1-1-1-1-|2---------------|


|----------------|----------------|----------------|
|----------------|----------------|----------------|
|----------------|----------------|----------------|
|--------------0-|2---------------|----------------|
|--------------0-|2---------------|--------------0-|
|--------------0-|2---------------|--------------0-|


|----------------|----------------|----------------|----------------|
|----------------|----------------|----------------|----------------|
|----------------|----------------|----------------|----------------|
|----------------|----------------|----------------|----------------|
|2---------------|--------------0-|2-----1-------2-|------3-------0-|
|2---------------|--------------0-|2-----------2---|----2---------0-|
 1st Verse

|----------------|----------------|----------------|----------------|
|----------------|----------------|----------------|----------------|
|------3-------4-|------5---------|------3-------4-|------5---------|
|------3-------4-|------5---------|------3-------4-|------5---------|
|0-1-2-1-------2-|------3-------0-|0-1-2-1-------2-|------3-------0-|
|0-1-2-------2---|----2---------0-|0-1-2-------2---|----2---------0-|


|----------------|----------------|----------------|----------------|
|----------------|----------------|----------------|----------------|
|----------------|----------------|----------------|----------------|
|----------------|----------------|----------------|----------------|
|2---------------|--------------0-|2-----1-------2-|------3-------0-|
|2---------------|--------------0-|2-----------2---|----2---------0-|


|----------------|----------------|| ----------------|----------------|
|----------------|----------------|| ----------------|----------------|
|------3-------4-|------5---------||*--------5---5---|1-------1---1---|
|------3-------4-|------5---------||*--------5---5---|1-------1---1---|
|0-1-2-1-------2-|------3-------0-|| 7-7-7-7---7-----|--3-3-3---3-----|
|0-1-2-------2---|----2---------0-|| 7-7-7-7---7-----|--3-3-3---3-----|


|----------------|---------------- 1|----------------|----------------|
|----------------|---------------- ||----------------|----------------|
|2-------2---2---|4---------------*||2-------3-------|--6-----6-------|
|2-------2---2---|4---------------*||2-------3-------|--6-----6-------|
|--4-4-4---4-----|--1-1-1-1-1-1-1- ||0-------1-------|5-6---5-6-0-0-0-|
|--4-4-4---4-----|--1-1-1-1-1-1-1- ||----------------|5-6---5-6-0-0-0-|


|----------------|--------|----------------|----------------|
|----------------|--------|----------------|----------------|
|----------------|--6-----|2-------3-------|--6-----6-------|
|----------------|--6-----|2-------3-------|--6-----6-------|
|0-0-0-0-0-0-0-0-|5-6---5-|0-------1-------|5-6---5-6-0-0-0-|
|0-0-0-0-0-0-0-0-|5-6---5-|----------------|5-6---5-6-0-0-0-|


|----------------|--------|----------------|----------------||
|----------------|--------|----------------|----------------||
|----------------|--6-----|2-------3-------|--------2-------||
|----------------|--6-----|2-------3-------|1-------2-------||
|0-0-0-0-0-0-0-0-|5-6---5-|0-------1-------|1-------0-------||
|0-0-0-0-0-0-0-0-|5-6---5-|----------------|1---------------||


|| ----------------|---------------- 1|| ----------------|
|| ----------------|---------------- ||| ----------------|
||*------3-------4-|------5---------*|||*------3-------4-|
||*------3-------4-|------5---------*|||*------3-------4-|
|| 0-1-2-1-------2-|------3-------0- ||| 0-1-2-1-------2-|
|| 0-1-2-------2---|----2---------0- ||| 0-1-2-----1-2---|


|---------------- 1|----------------|----------------|----------------|
|---------------- ||----------------|----------------|----------------|
|------5---------*||----------------|----------------|----------------|
|------5---------*||2---------------|--------------0-|2---------------|
|------3-------0- ||2---------------|--------------0-|2-------------0-|
|--1-2-----1-2-0- ||2---------------|--------------0-|2-------------0 |


|----------------|----------------|----------------|----------------|
|----------------|----------------|----------------|----------------|
|----------------|----------------|----------------|----------------|
|----------------|----------------|----------------|----------------|
|2---------------|--------------0-|2-----1-------2-|------3-------0-|
|2---------------|--------------0-|2-----------2---|----2---------0-|
   2nd Verse


|----------------|----------------|----------------|----------------|
|----------------|----------------|----------------|----------------|
|------3-------4-|------5---------|------3-------4-|------5---------|
|------3-------4-|------5---------|------3-------4-|------5---------|
|0-1-2-1-------2-|------3-------0-|0-1-2-1-------2-|------3-------0-|
|0-1-2-------2---|----2---------0-|0-1-2-------2---|----2---------0-|


|----------------|----------------|----------------|----------------|
|----------------|----------------|----------------|----------------|
|----------------|----------------|----------------|----------------|
|----------------|----------------|----------------|----------------|
|2---------------|--------------0-|2-----1-------2-|------3-------0-|
|2---------------|--------------0-|2-----------2---|----2---------0-|


|----------------|----------------|| ----------------|----------------|
|----------------|----------------|| ----------------|----------------|
|------3-------4-|------5---------||*--------5---5---|1-------1---1---|
|------3-------4-|------5---------||*--------5---5---|1-------1---1---|
|0-1-2-1-------2-|------3-------0-|| 7-7-7-7---7-----|--3-3-3---3-----|
|0-1-2-------2---|----2---------0-|| 7-7-7-7---7-----|--3-3-3---3-----|


|----------------|---------------- 1|----------------|----------------|
|----------------|---------------- ||----------------|----------------|
|2-------2---2---|4---------------*||2-------3-------|--6-----6-------|
|2-------2---2---|4---------------*||2-------3-------|--6-----6-------|
|--4-4-4---4-----|--1-1-1-1-1-1-1- ||0-------1-------|5-6---5-6-0-0-0-|
|--4-4-4---4-----|--1-1-1-1-1-1-1- ||----------------|5-6---5-6-0-0-0-|


|----------------|----------------|----------------|----------------|
|----------------|----------------|----------------|----------------|
|----------------|--6-----2-------|3---------6-----|6---------------|
|----------------|--6-----2-------|3---------6-----|6---------------|
|0-0-0-0-0-0-0-0-|5-6---5-0-------|1-------5-6---5-|6-0-0-0-0-0-0-0-|
|0-0-0-0-0-0-0-0-|5-6---5---------|--------5-6---5-|6-0-0-0-0-0-0-0-|


|----------------|----------------|----------------|-------------------|
|----------------|----------------|----------------|-------------------|
|----------6-----|2-------3-------|--------2-------|----------6--------|
|----------6-----|2-------3-------|1-------2-------|----------6--------|
|0-0-0-0-5-6---5-|0-------1-------|1-------0-------|--------5-6---5----|
|0-0-0-0-5-6---5-|----------------|1---------------|--------5-6---5----|


                                                    Solo: W/Wah
|----------------|----------------|----------------|--------------7-h10|
|----------------|----------------|----------------|-------------------|
|----------------|----------------|----------------|-------------------|
|----------------|----------------|----------------|-------------------|
|----------------|----------------|----------------|-------------------|
|----------------|----------------|----------------|-------------------|


|p7-h10-p7-h10-p7-h10-p7-h10-p7-h10-p7-h10-p7-h10-p7-h10-p7-h10-p7-h10
|---------------------------------------------------------------------
|---------------------------------------------------------------------
|---------------------------------------------------------------------
|---------------------------------------------------------------------
|---------------------------------------------------------------------
    T   r  i   l  l      *   *


p7-h10-p7-h10-p7-h10-p7-h10-p7-h10-p7-h10|
-----------------------------------------|
-----------------------------------------|
-----------------------------------------|
-----------------------------------------|
-----------------------------------------|


|p7-h10-p7-h10-------------------------------10-10-10-10|
|--------------/17-b19-~--------------------------------|
|-------------------------------------------------------|
|-------------------------------------------------------|
|-------------------------------------------------------|
|-------------------------------------------------------|


|14-p11-p10-14-p11-p10-14-p11-p10-14-p11-p10-14-p11-p10-14-p11-p10-14-p11
|------------------------------------------------------------------------
|------------------------------------------------------------------------
|------------------------------------------------------------------------
|------------------------------------------------------------------------
|------------------------------------------------------------------------


p10-14-p11-p10|14-p11-p10-14-p11-p10-14-p11-p10---------------|
--------------|---------------------------------13-b16-------|
--------------|-----------------------------------------------|
--------------|-----------------------------------------------|
--------------|-----------------------------------------------|
--------------|-----------------------------------------------|


|--------------9-10--9-h10-p-9------------------------|
|--------9-10------------------10--9------------------|
|-9-h10------------------------------11-10------------|
|------------------------------------------12-11--8--7|
|-----------------------------------------------------|
|-----------------------------------------------------|


|----------------------|
|----------------------|
|----------------------|
|8-h9---8~------------|
|----------------------|
|----------------------|

                                 
|---------14-p11-p10-14-p11-p10-14-p11-p10-14-p11-p10|
|----------------------------------------------------|
|0--------------------------------------------------|
|----------------------------------------------------|
|----------------------------------------------------|
|----------------------------------------------------|
   w hammy b a  r      d   o   w  n
 
                                
|14-p11-p10-14-p11-p10-14-p11-p10-/-------------|------------------|
|-----------------------------------------------|------------------|
|------------------------------------12---12~---|------------------|
|-----------------------------------------------|------------------|
|-----------------------------------------------|------------------|
|-----------------------------------------------|------------------|


|------------------|----------------|------------------|
|------------------|----------------|------------------|
|2-----------------|2-------3-------|2-----------------|
|2-----------------|2-------3-------|2-----------------|
|0-----0-1-0---1-0-|0-------1-------|0-----0-1-0---1-0-|
|--3-5-------3-----|----------------|--3-5-------3-----|


|----------------|----------------|| ----------------|---------------- 3|
|----------------|----------------|| ----------------|---------------- ||
|2-------3-------|--------2-------||*------3-------4-|------5---------*||
|2-------3-------|1-------2-------||*------3-------4-|------5---------*||
|0-------1-------|1-------0-----0-|| 0-1-2-1-0-0---2-|0-0---3-0-0-0-0- ||
|----------------|1-------------0-|| 0-1-2---0-0-2---|0-0-2---0-0-0-0- ||


|----------------|----------------|----------------|----------------|
|----------------|----------------|----------------|----------------|
|----------------|----------------|----------------|----------------|
|2---------------|--------------0-|2---------------|----------------|
|2---------------|--------------0-|2---------------|--------------0-|
|2---------------|--------------0-|2---------------|--------------0-|


|----------------|----------------|----------------|----------------|
|----------------|----------------|----------------|----------------|
|----------------|----------------|----------------|----------------|
|----------------|----------------|----------------|----------------|
|2---------------|--------------0-|2-----1-------2-|------3-------0-|
|2---------------|--------------0-|2-----------2---|----2---------0-|
   3rd Verse

|----------------|----------------|----------------|----------------|
|----------------|----------------|----------------|----------------|
|------3-------4-|------5---------|------3-------4-|------5---------|
|------3-------4-|------5---------|------3-------4-|------5---------|
|0-1-2-1-------2-|------3-------0-|0-1-2-1-------2-|------3-------0-|
|0-1-2-------2---|----2---------0-|0-1-2-------2---|----2---------0-|


|----------------|----------------|----------------|----------------|
|----------------|----------------|----------------|----------------|
|----------------|----------------|----------------|----------------|
|----------------|----------------|----------------|----------------|
|2---------------|--------------0-|2-----1-------2-|------3-------0-|
|2---------------|--------------0-|2-----------2---|----2---------0-|


|----------------|----------------|| ----------------|----------------|
|----------------|----------------|| ----------------|----------------|
|------3-------4-|------5---------||*--------5---5---|1-------1---1---|
|------3-------4-|------5---------||*--------5---5---|1-------1---1---|
|0-1-2-1-------2-|------3-------0-|| 7-7-7-7---7-----|--3-3-3---3-----|
|0-1-2-------2---|----2---------0-|| 7-7-7-7---7-----|--3-3-3---3-----|


|----------------|---------------- 1|----------------|----------------|
|----------------|---------------- ||----------------|----------------|
|2-------2---2---|4---------------*||2-------3-------|--6-----6-------|
|2-------2---2---|4---------------*||2-------3-------|--6-----6-------|
|--4-4-4---4-----|--1-1-1-1-1-1-1- ||0-------1-------|5-6---5-6-0-0-0-|
|--4-4-4---4-----|--1-1-1-1-1-1-1- ||----------------|5-6---5-6-0-0-0-|


|----------------|----------------|----------------|----------------|
|----------------|----------------|----------------|----------------|
|----------------|--6-----2-------|3---------6-----|6---------------|
|----------------|--6-----2-------|3---------6-----|6---------------|
|0-0-0-0-0-0-0-0-|5-6---5-0-------|1-------5-6---5-|6-0-0-0-0-0-0-0-|
|0-0-0-0-0-0-0-0-|5-6---5---------|--------5-6---5-|6-0-0-0-0-0-0-0-|


|----------------|----------------|----------------|------------------|
|----------------|----------------|----------------|------------------|
|----------6-----|2-------3-------|--------2-------|2-----------------|
|----------6-----|2-------3-------|1-------2-------|2-----------------|
|0-0-0-0-5-6---5-|0-------1-------|1-------0-------|0-----0-5-1-0-1-0-|
|0-0-0-0-5-6---5-|----------------|1---------------|--3-5-------------|


|| ----------------|---------------- 15
|| ----------------|---------------- ||
||*--6-----6-------|----------------*||
||*--6-----6-------|----------------*||
|| 5-6---5-6-0-0-0-|0-0-0-0-0-0-0-0- ||
|| 5-6---5-6-0-0-0-|0-0-0-0-0-0-0-0- ||
   Repeat and Fade
Listen to this song at Rdio  
Get this song at amazon.com     Ringtones Ringtones  eMusic  

Learn to play: Songwriting, Piano, Harmonica, Guitar

Related Metallica Tabs

Today Your Love tabs
King Nothing tabs
Havest Of Sorrow tabs
Enter Sandman (intro) tabs
Eye Of The Beholder tabs
Shoot Me Again Bass tabs
-human tabs
NIB tabs
Attitude,correct(rate) tabs
Loverman tabs
Little Boy Youre Going To Hell tabs
I Disappear tabs
Untill It Sleeps tabs
Damage Case tabs
Cors Light Beer Song tabs
The God That Failed tabs
St Anger tabs
Aint My Bitch2 tabs
Wasting My Hate tabs
Call Of Ktulu tabs


Guitar Tabs




All tabs are property and copyright of their owners. All tabs provided for educational purposes only. Privacy Policy, DMCA, Muzikum