Metallica

The House Jack Built Bass Tabs



More from Metallica

Metallica Tabs
Metallica Chords
Metallica Bass
Metallica Lyrics



G---------------------------------------------------------------------
D---------------------------------------------------------------------
A------------7----7--------7--7--5---7-------7-------7--7--5--7-------
E---0-0h5h7----0-----0--0--------------0000-----0-0-------------------

G---------------------------------------------------------------------
D---------------------------------------------------------------------
A----------7-------------3----------------------3--3------------------
E---0000-------0000--1-------5----3---3---1--1--------0---------------

G---------------------------------------------------------------------
D---------------------------------------------------------------------
A------------7----7--------7--7--5---7-------7-------7--7--5--7-------
E---0-0h5h7----0-----0--0--------------0000-----0-0-------------------

G---------------------------------------------------------------------
D---------------------------------------------------------------------
A----------7-------------3----------------------3--3------------------
E---0000-------0000--1-------5----3---3---1--1--------0---------------

G---------------------------------------------------------------------
D---------------------------------------------------------------------
A---7--7--------7--7----------------7--7--------7--7------------------ E---6--6--0--0--6--6--0--0--0-0--0--6--6--0--0--6--6--0--0--0-0--0----

G----------------------------------------------------------------------------
D----------------------------------------------------------------------------
A---7--7--------7--7---------------------------------------------------------
E---6--6--0--0--6--6--0--0--0-0--0-0h2--2--2--2/3--3--3--3/5--5--5--5/6--6--6

G--------------------------------------------------------------------
D--------------------------------------------------------------------
A----------------3-3-3------5--------------------3----5---5/---------
E---1-1-1-3-3-3--------3/5-----5/---1-1-1-3-3-3----3--5---5/----0----

G--------------------------------------------------------------------
D--------------------------------------------------------------------
A------3---------------3--3------------------1------1--3-3-3--1--1---
E---1-----1/3---3---3---------6---5---3--0------1--------------------

Taken from The BassMasta -- http://www.tabs-database.com



Related Metallica Bass Tabs

Minus Human bass
Call Of Ktulu bass
Mama Said (country) bass
Fixxxer bass
Motorbreath bass
Mexico City Guitar Solo bass
Tuesdays Gone bass
Little Boy You E Going To Hell bass
Stone Dead Forever bass
Linus And Lucy bass
Damage Inc (perfect) bass
Die Die Die My Darling (misfit Cover) bass
Orion bass
Whiskey In The Jar bass
Ride The Lighning bass
Hit The Lights bass
Run To The Hills bass
Of wolf and man bass
Black Album Tab bass
Bass Solo bass


Guitar Tabs




All tabs are property and copyright of their owners. All tabs provided for educational purposes only. Privacy Policy, DMCA, Links