Metallica

The Call Of Ktulu Bass Tabs



More from Metallica

Metallica Tabs
Metallica Chords
Metallica Bass
Metallica Lyrics




Song: The call Of Ktulu
Artist: Metallica
ALbum: Ride The Lighnting


GUITAR INTRO

start at 00:33
G||-------------------||----------------|-------------------|
D|4:------------------||:---------------|------------------:|
A|4:------------------||:-0---------7---|-6\---------------:| x4
E||-------------------||----------------|-------------------|


G||----------------|----------------|| |----------------|------------------|
D||----------------|----------------|| |----------------|------------------|
A||----------------|-5--------------|| x3 |5-5-5-5-5-5-5-5-|5-5-5-5--5-5--5\--|
E||----------------|----------------|| |----------------|------------------|


BASS FILL #1
============

G||-----------------------|-------------------|
D||--------5H7-5-7--------|-------------------|
A||--0-0-0-------------7--|--6-6-6-6-6-7------|
E||-----------------------|--------------8-7--|


BASS SOLO
=========
3rd and 4th times, substitute Bass Fill #1


G||-------------------------|--------------------|----------9-9-9----|
D||:-------(5)H7--5--7------|--------------------|----------7-7-7----|
A||:-0--0----------------7--|--6-6-6-6--6-7--7\--|--0-0--0--0-0-0-7--|
E||-------------------------|--------------------|-------------------|

G||---------------------------|---------------------------|--------------------|
D||---------------------------|--------5-(5)H7--7-7-7-----|--------------------|
A||--6-6-6-6--6-(10)-(6/(10))-|--0-0-0----------------7---|--6-6-6-6--6-7------|
E||---------------------------|---------------------------|---------------8-7--|

G||----------------------|--------------------|------------------------|
D||--------5--7---(7)\---|--------------------|--0-0-0-0--12-12-12-12--|
A||--0-0-0----0/------7--|--6-6-6-6--6-7--7\--|------------------------|
E||----------------------|--------------------|------------------------|

G||--9-9-9-9--10-10-10-10--12-12-12-12--12-12-12-12--|------------------------|
D||--------------------------------------------------|--0-0-0-0--12-12-12-12--|
A||--------------------------------------------------|------------------------|
E||--------------------------------------------------|------------------------|

[1.-------------------------



G||-------10----10-10--10\-|------------------------|--10----12----14----12-14--|
D||--12---------12-12--12\-|--0-0-0-0--12-12-12-12--|---------------------------|
A||------------------------|------------------------|---------------------------|
E||------------------------|------------------------|---------------------------|
^
This is where it changes.
When you get to here, go
to the next part 1-2-3-4 !

------------------------------------------------------------------------------]

G||--15-14--12H14P12-14H15P14-12H14P12--|-14H15P14--12H14P12---15-14-12-14\--||
D||-------------------------------------|-----------------------------------:||
A||-------------------------------------|-----------------------------------:||
E||-------------------------------------|------------------------------------||

[2.-------------------------------------------------------------------------------------]

G||--10----12----14--12-14--|--12-17-15-14-----15-14-----|-----14H15P14--------14H15P14||
D||-------------------------|---------------17-------17--|--17----------17--17-----17-:||
A||-------------------------|----------------------------|----------------------------:||
E||-------------------------|----------------------------|-----------------------------||


[3.---------------------------------------------------------------------------------]

G||--10----12----14------|------------------12-14-12--|--14-12-15-14--17-15-17-19\---||
D||----------------------|--12-14-15-12--15-----------|-----------------------------:||
A||----------------------|----------------------------|-----------------------------:||
E||----------------------|----------------------------|------------------------------||

[4.--------------------------->

G||--------------------------|-14-14-14-14-14-14-14-14-10-10-10-10-10-10-10-10-|
D||-12-12-12-12--12-12-12-12-|-------------------------------------------------|
A||--------------------------|-------------------------------------------------|
E||--------------------------|-------------------------------------------------|

::::GRADUAL BEND:::::::::::::full-----------wah off-]

G||-12-12-12-12-12-12-12-12-12-12-12-12-12-12-12-12-|
D||-------------------------------------------------|
A||-------------------------------------------------|
E||-------------------------------------------------|


Build-up for solo (03:18)
G||--------------------------|------------------------|--------------------------|
D||:-------------------------|------------------------|--------------------------|
A||:-------------0-----2--3--|--------------0--2---3--|--------------0-----2--3--|
E||--0--0--0--0-----0--------|--1--1--1--1------------|--2--2--2--2-----0--------|

G||------------------------|
D||-----------------------:| x4
A||--5-----------3--2-----:|
E||-----3--3--3---------3--|

G||--------------------------|------------------------|--------------------------|
D||:-------------------------|------------------------|--------------------------|
A||:-------------3-----5--6--|--------------3--5---6--|--------------3-----5--6--|
E||--3--3--3--3-----3--------|--4--4--4--4------------|--5--5--5--5-----5--------|

G||-------------------------|
D||------------------------:|
A||--8-----------6--5------:|
E||-----6--6--6---------6---|


Guitar solo (play with Wah)


G||------------------------|------------------------|------------------------|
D||:----------5-5H7--7-----|------------------------|----------5--7--7-7-7---|
A||:-0--0--0------------7--|-6--6--6--6--6--7--7/9--|-0--0--0--------------7-|
E||------------------------|------------------------|------------------------|

G||-----------------------|--------------------------|--------------------------|
D||----------------5--5\--|-----------5--7-7-7-7-----|--------------------------|
A||-6--6--6--6--6--7--7\--|--0--0--0--------------7--|--6--6--6--6--6--7--------|
E||-----------------------|--------------------------|--------------------8--7--|

G||------------------------|--------------------------|---------------------------|
D||----------------7\------|--------------------------|--0--0--0--0--12-12-12-12--|
A||--0--0--0--0----0----7--|--6--6--6--6--6--7--7--7--|---------------------------|
E||------------------------|--------------------------|---------------------------|


G||-------------------------|
D||-12-12-12-12-12-12-12-12-| play this bar 4 times
A||-------------------------|
E||-------------------------|

[1.------------------------------------------------------------------------------]

G||-------------------------|-------------------------|--------------------------|
D||-12-12-14-14-15-15-14-14-|-12-12-12-12-12-12-12-12-|-12-12-12-12-12-12-12-12-:|
A||-------------------------|-------------------------|-------------------------:|
E||-------------------------|-------------------------|--------------------------|

[2.------------------------------------------------------------------------------]

G||-------------------------|-------------------------|--------------------------|
D||-12-12-12-12-12-12-12-12-|-12-12-12-12-12-12-12-12-|-12-12-12-12-12-12-12-12-:|
A||-------------------------|-------------------------|-------------------------:|
E||-------------------------|-------------------------|--------------------------|

G||---------------------------|-------------------------|-------------------------|
D||:-----------5--7--5--7-----|-------------------------|----------5--7--5--7-----|
A||:--0--0--0--------------7--|-6--6--6--6--6--7--------|-0--0--0--------------7--|
E||---------------------------|-------------------8--7--|-------------------------|

G||-------------------------|
D||-----------------5--5\--:|
A||--6--6--6--6--6--7--7\--:|
E||-------------------------|

G||--------------------------|--------------------------|
D||--0--0--0--0--12-12-12-12-|--13-13-14-14-15-15-15-15-| Play these bars twice
A||--------------------------|--------------------------|
E||--------------------------|--------------------------|

G||--------------------------|---------------12------|-12-14-12-14-12-14-12-14-12-14-12-|
D||--0--0--0--0--12-12-12-12-|--14-14-15-15-------------|-------------------------------|
A||--------------------------|--------------------------|-------------------------------|
E||--------------------------|--------------------------|-------------------------------|


G||-14-12-14-12-14-12-14-12-14-|
D||----------------------------|
A||----------------------------|
E||----------------------------|

(05:22)
G||--------------------------|------------------------|
D||:-------------------------|-----------------------:|
A||:-0-----------0-----2--3--|--0-----------0--2--3--:| x4
E||-----0--0--0-----0--------|-----1--1--1------------|


G||--------------------------|------------------------|
D||:-------------------------|-----------------------:|
A||:-2-----------2-----4--5--|--2-----------2--4--5--:| x4
E||-----2--2--2-----2--------|-----3--3--3------------|


G||--------------------------|-----------------------|
D||:-------------------------|----------------------:|
A||:-3-----------3-----5--6--|--3-----------3--5--6-:| x3
E||-----3--3--3-----3--------|-----4--4--4-----------|


G||--------------------------|-----------------------|
D||:-------------------------|----------------------:|
A||:-5-----------5-----7--8--|--5-----------5--7--8-:| x3
E||-----5--5--5-----5--------|-----6--6--6-----------|


G||---------------------|-------------------|
D||:--------------------|------------------:|
A||:-----0---------7----|----6-------------:| x8
E||---------------------|-------------------|

[1.2.3.-------------][4.---------------------------------->

G||-------7------7------|-------------------|--------------------|--------------------|
D||:--------------------|------------------:|------0-------------|--------------------|
A||:--------------------|----0-------------:|--------------------|--------------------|
E||---------------------|-------------------|-------------0------|----(0)-------------|

G||----------------------|--------------------|
D||:---------------------|--------------------|
A||:---------------------|-------7-----7------|
E||----3--2--2--2-----3--|--0----------0------|

[1-7.----------------]

G||----------------------|--------------------|
D||----------------------|-------------------:|
A||----------------------|-------------7-----:|
E||----3--2--2--2-----3--|--0----------0------|

[8.------------------->

G||----------------------|-------------------|----------------------|
D||----------------------|-------------------|----------------------|
A||----------------------|---------5----5----|---(5)----------------|
E||---0---0------2---2---|--(2)--------------|----------------------|


Now there is 15 bars of Drums. last bit --->

G||----------------------|----------------------|-------------------|
D||----------------------|----------------------|3------------------|
A||----5----3----5----1--|----5----8----5-------|4---(5)------------|
E||----------------------|----------------------|-------------------|

Play this fast
G||---------------------|--------------|12\10/12/14\12/14/15\14/15/17\15/17/|/19--------|
D||4--------------------|--------------|------------------------------------|-----------|
A||4---5---3----5----1--|----5----8----5------|-----------------------------|----17hold-|
E||---------------------|---------------------|-----------------------------|-----------|

FINISH



Related Metallica Bass Tabs

Hit The Lights bass
Holier Than Thou bass
Cliff Burton Memorial R.i.p bass
Carpe Diem Baby bass
Whiskey In The Jar bass
Saint Anger bass
Little Wing bass
Green Hell bass
Wherever I May Roam bass
Poor Twisted Me bass
Until It Sleeps (s&m Version) bass
Aint My Bitch bass
Enter Sandman (bass Tab) bass
Escape bass
No Remorse bass
Blitzkrieg bass
The Black Album bass
Damage Inc (perfect) bass
King Of Nothing bass
From Whom The Bells bass


Guitar Tabs




All tabs are property and copyright of their owners. All tabs provided for educational purposes only. Privacy Policy, DMCA, Links