Metallica

Sweet Amber Tabs



More from Metallica

Metallica Tabs
Metallica Chords
Metallica Bass
Metallica Lyrics

tabs-database.com[http://www.tabs-database.com.com/]
Sweet Amber



Tuning

CGCFAD

PM = palm mute

^ = full bend



Intro

D |-----------------------|

A |-----------------------|

F |-----------------------|

C |-----------------------| x4

G |-15---17---15h17—20^20-|

C |-----------------------|



Intro/verse

D |--------|

A |--------|

F |--------|

C |-x-xx-x-|

G |-x-xx-x-|

C |-x-xx-x-|



When he starts singing play intro over this

D |---------------------------|

A |---------------------------|

F |---------------------------|

C |-5-------------------------| x3

G |-3-5-------3h5-10^-10-10---|

C |-----0-000-----------------|

PM |-----|



The fourth time play this

D |---------------------------|

A |---------------------------|

F |---------------------------|

C |-5-------------------------|

G |-3-5-----------------------|

C |-----0-000-0-0-000-0-0-000-|

PM |.....................|



D |--------|

A |--------|

F |--------|

C |-0--0-0-|

G |-0--0-0-|

C |-0--0-0-|

PM|......|



and then she holds my hand...

D |---------------|

A |---------------|

F |----5~-3~-2~---|

C |-0~-5~-3~-2~---|

G |-0~-3~-1~-0~---|

C |-0~------------|





using what I want to get what you want

D |-------------------------------|

A |-------------------------------|

F |-------------------------------|

C |-5p0-0-3p0-0-5p0-0-3-3-3-3-2-2-|

G |-5p0-0-3p0-0-5p0-0-3-3-3-3-2-2-|

C |-5p0-0-3p0-0-5p0-0-3-3-3-3-2-2-|

PM |.| |.| |.|













Oooo!! Sweet amber

D |--------------------------------------------------------------------------|

A |--------------------------------------------------------------------------|

F |--------------------------------------------------------------------------|

C |-3--7-6--2--1-------------------------------------------------------------|

G |-3--7-6--2--1-------------------------------------------------------------|

C |-3--7-6--2--1-------------------------------------------------------------|



how sweet does it get

D |---------------------|

A |---------------------|

F |---------------------|

C |---------------------|

G |--0-0-0-3--5-0-0-5-3-|

C |--0-0-0-3--5-0-0-5-3-|

PM |.....| |...|



Theres a follow on from this riff which I havent worked out yet

D |---------------------------------------------------|

A |---------------------------------------------------|

F |---------------------------------------------------|

C |-0-0000-0-0000-0-0000-3-0-2-0000-2-0000-2-0000-8-7-|

G |-5------5------5-----------------------------------|

C |---------------------------------------------------|

PM |....| |....| |....| |....| |....| |....|



OR



D |--------------------------------------------------------------------------|

A |--------------------------------------------------------------------------|

F |-7----7----7----10-7-9----9----9----10-9----------------------------------|

C |-00000000000000000000000000000000000x--x----------------------------------|

G |------------------------------------8--7----------------------------------|

C |--------------------------------------------------------------------------|

-they both work out to sound preety good just the one above is easier



Never as sweet as it seems…….

D |--------------------------------------------------------------------------|

A |--------------------------------------------------------------------------|

F |--------------------------------------------------------------------------|

C |--------------------------------------------------------------------------|

G |-3-2-0-3-2-1-0------------------------------------------------------------|

C |-3-2-0-3-2-1-0------------------------------------------------------------|





Well that was my second tab, and I enjoyed doing it because its an excuse to crank my stereo and play some metallica!!! ROCK ON!

Added by tabs-database.com.com and our distinguished partners

Related Metallica Tabs

Waisting My Hate (intro) tabs
I Disapear (version 2) tabs
Creeping Death tabs
Welcome Home tabs
One *complete* tabs
Last Carress tabs
Crash Course In Brain Surgery tabs
Die Die My Darling tabs
Fuel tabs
Orion Btab tabs
Album: Reload tabs
Where Ever I May Roam tabs
Live Riffs tabs
Last Caress / Green Hell tabs
Man In The Box tabs
Blues Jam tabs
Garage Inc Album tabs
Metal Militia tabs
Dirty Window tabs
Sabbra Cadabra tabs


Guitar Tabs




All tabs are property and copyright of their owners. All tabs provided for educational purposes only. Privacy Policy, DMCA, Links