Metallica

St Anger Tabs



More from Metallica

Metallica Tabs
Metallica Chords
Metallica Bass
Metallica Lyrics

#----------------------------------PLEASE NOTE---------------------------------#
#This file is the author's own work and represents their interpretation of the #
#song. You may only use this file for private study, scholarship, or research. #
#------------------------------------------------------------------------------##

ST ANGER
As recorded by Metallica
(From the 2003 Album ST ANGER)

Words and Music by Metallica
Arranged by Metallica
Transcribed by Moutch Routch

Gtr I (C G C F A D) - 'Dist'
Gtr II (C# G C F A D) - 'Clean'
Gtr III (C# G C F A D) - 'Clean'
Gtr IV (C G C F A D) - 'Dist'

Q=189
4/4
Gtr I
PM------| PM| PM----| PM------| PM|
E E E E E E E E E E E E E E E E 3x E E E E E E E E E E H.
||------------------|-------------------||-----------------|----------|
||o-----------------|------------------o||-----------------|----------|
||------------------|-------------------||-----------------|----------|
||------------------|-----------3-3-3---||-----------------|----------|
||o-----------------|-----------3-3-3--o||-----------------|----------|
||--0-1-2-2-1-2-1-0-|-2-1-0-1-2---------||-0-1-2-2-1-2-1-0-|-2--------|


PM------| PM| PM----|
W E E E E E E E E E E E E E E E E
|----------|-----------------|-----------------|
|----------|-----------------|-----------------|
|----------|-----------------|-----------------|
|----------|-----------------|-----------3-3-3-|
|----------|-----------------|-----------3-3-3-|
|----------|-0-1-2-2-1-2-1-0-|-2-1-0-1-2-------|


PM------| PM| PM----|
E E E E E E E E E E E E E E E E
|-----------------|-----------------|
|-----------------|-----------------|
|-----------------|-----------------|
|-----------------|-----------3-3-3-|
|-----------------|-----------3-3-3-|
|-0-1-2-2-1-2-1-0-|-2-1-0-1-2-------|


PM------| PM| PM----| PM------| PM| PM| PM| PM
E E E E E E E E E E E E E E E E E E E E E E E E E E E E E E E E
|-----------------|-----------------|-----------------|-----------------|
|-----------------|-----------------|-----------------|-----------------|
|-----------------|-----------------|-----------------|-----------------|
|-----------------|-----------3-3-3-|-----------------|-----------------|
|-----------------|-----------3-3-3-|-----------------|-----------------|
|-0-1-2-2-1-2-1-0-|-2-1-0-1-2-------|-0-1-2-2-1-2-1-0-|-2-1-0-2-1-0-2-1-|
|
| Gtr IV
| H E E E E E E E E E E E E
|-----------------|-----------------|-----------------|-----------------|
|-----------------|-----------------|-----------------|-----------------|
|-----------------|-----------------|-----------------|-----------------|
|-----------------|-----------------|-----------------|-----------------|
|-----------------|-----------------|-----------2-1-0-|-2-1-0-2-1-0-2-1-|
|-----------------|-----------------|-----------2-1-0-|-2-1-0-2-1-0-2-1-|


3/4
PM--| PM------| PM| PM----|
E E E E E E E E E E E E E E E E E E E E E E
|-------------|-----------------|-----------------|
|-------------|-----------------|-----------------|
|-------------|-----------------|-----------------|
|-------3-3-3-|-----------------|-----------3-3-3-|
|-------3-3-3-|-----------------|-----------3-3-3-|
|-0-1-2-------|-0-1-2-2-1-2-1-0-|-2-1-0-1-2-------|
|
| E E H H E E E E E E E E H
|-------------|-----------------|-----------------|
|-------------|-----------------|-----------------|
|-------------|-----------------|-----------------|
|-------------|-----------------|-----------------|
|-0-----------|-----------2-1-0-|-2-1-0-----------|
|-0-----------|-----------2-1-0-|-2-1-0-----------|


PM------| PM| PM----|
E E E E E E E E E E E E E E E E
|-----------------|------------------|
|-----------------|------------------|
|-----------------|------------------|
|-----------------|-----------3-3-3--|
|-----------------|-----------3-3-3--|
|-0-1-2-2-1-2-1-0-|-2-1-0-1-2--------|
|
| H E E E E E E E E H
|-----------------|------------------|
|-----------------|------------------|
|-----------------|------------------|
|-----------------|------------------|
|-----------2-1-0-|-2-1-0------------|
|-----------2-1-0-|-2-1-0------------|


PM------| PM| PM----| PM------| PM| PM| PM| PM
E E E E E E E E E E E E E E E E E E E E E E E E E E E E E E E E
|-----------------|-----------------|-----------------|-----------------|
|-----------------|-----------------|-----------------|-----------------|
|-----------------|-----------------|-----------------|-----------------|
|-----------------|-----------3-3-3-|-----------------|-----------------|
|-----------------|-----------3-3-3-|-----------------|-----------------|
|-0-1-2-2-1-2-1-0-|-2-1-0-1-2-------|-0-1-2-2-1-2-1-0-|-2-1-0-2-1-0-2-1-|
|
| H E E E E E E E E H H E E E E E E E E E E E E
|-----------------|-----------------|-----------------|-----------------|
|-----------------|-----------------|-----------------|-----------------|
|-----------------|-----------------|-----------------|-----------------|
|-----------------|-----------------|-----------------|-----------------|
|-----------2-1-0-|-2-1-0-----------|-----------2-1-0-|-2-1-0-2-1-0-2-1-|
|-----------2-1-0-|-2-1-0-----------|-----------2-1-0-|-2-1-0-2-1-0-2-1-|


$
3/4 4/4
PM--|
E E E E E E E E E E E E E E
|--------------||------------------|
|--------------||o-----------------|
|--------------||------------------|
|-------3-3-3--||------------------|
|-------3-3-3--||o-0-1-2-2-1-2-1-0-|
|-0-1-2--------||--0-1-2-2-1-2-1-0-|
|
| E E H E E E E E E E E
|--------------||------------------|
|--------------||o-----------------|
|--------------||------------------|
|--------------||------------------|
|-0------------||o-0-1-2-2-1-2-1-0-|
|-0------------||--0-1-2-2-1-2-1-0-|


E E E E E E E E 8x E E E E E E E E E E E E
|------------------||--------------|---------------|
|-----------------o||--------------|---------------|
|------------------||--------------|---------------|
|-----------3-3-3--||--------------|---------------|
|-2-1-0-1-2-3-3-3-o||--0-1-2-2-1-2-|-2-1-0-2-1-0---|
|-2-1-0-1-2--------||--0-1-2-2-1-2-|-2-1-0-2-1-0---|
|
| PM----------------------|
| E E E E E E E E 8x E E E E E E E E E E E E
|------------------||--------------|---------------|
|-----------------o||--------------|---------------|
|------------------||--------------|---------------|
|-----------3-3-3--||--------------|---------------|
|-2-1-0-1-2-3-3-3-o||--------------|---------------|
|-2-1-0-1-2--------||--2-1-0-2-1-0-|-2-1-0-2-1-0---|


4/4
Gtr III
Q +S S E Q Q +Q H. H H H H
|------------------|--------------|-------------|-------------|
|---------------1--|-(1)--3-------|-3-----3-----|-------------|
|------------2-----|--------------|-------------|-------------|
|-0--(0)-x-x-------|--------------|-------------|-------------|
|------------------|--------------|-------------|-1-----0-----|
|------------------|--------------|-------------|-------------|
|
| Gtr II
| Q H Q +Q H. Q Q Q Q Q Q Q Q
|---------------2--|-(2)----------|-------------|-------------|
|-3----------------|------3-------|-------3-----|----3-----3--|
|-----2------------|--------------|----0-----0--|-------------|
|------------------|--------------|-------------|-------------|
|------------------|--------------|-3-----------|-1-----0-----|
|------------------|--------------|-------------|-------------|


Q +S S E Q Q +Q H. H H H H 3x
||-------------------|--------------|--------------|----------------||
||o---------------1--|-(1)--3-------|-3-----3------|---------------o||
||-------------2-----|--------------|--------------|----------------||
||--0--(0)-x-x-------|--------------|--------------|----------------||
||o------------------|--------------|--------------|-1-----0-------o||
||-------------------|--------------|--------------|----------------||
|
| Q H Q +Q H. Q Q E E Q Q Q Q Q 3x
||-------------------|--------------|--------------|----------------||
||o---------------3--|-(3)----------|-------3-3----|----3-----3----o||
||------2------------|------2-------|----0------0--|----------------||
||--0----------------|--------------|--------------|----------------||
||o------------------|--------------|-3------------|-1-----0-------o||
||-------------------|--------------|--------------|----------------||


Gtr I
TP TP TP TP
W W W W 4x
||-----------|----------|-----------|-----------------------||
||o----------|----------|-----------|----------------------o||
||--7--------|-7--------|-10--------|--9--------------------||
||-----------|----------|-----------|-----------------------||
||o-5--------|-5--------|--8--------|--7-------------------o||
||-----------|----------|-----------|-----------------------||
|
| Gtr IV
| TP TP TP TP TP TP
| W W W Q +S Q.. Q 4x
||-----------|----------|-----------|-----------------------||
||o----------|----------|-----------|-11-(11)--10------10--o||
||--7--------|-7--------|--5--------|-----------------------||
||--7--------|-7--------|-----------|--8--(8)---7-------7---||
||o----------|----------|--3--------|----------------------o||
||-----------|----------|-----------|-----------------------||


W E E Q E E Q W H H
||-----------|---------------|----------|-------------||-|
||o----------|---------------|----------|------------o||-|
||-----------|---------------|-5--------|-10----9-----||-|
||--0--------|-0-0----0-0----|-5--------|--8----7-----||-|
||o-0--------|-0-0----0-0----|-3--------|------------o||-|
||--0--------|-0-0----0-0----|----------|-------------||-|
|
| W E E Q E E Q W H H
||-----------|---------------|----------|-------------||-|
||o----------|---------------|----------|------------o||-|
||-----------|---------------|-5--------|--3----2-----||-|
||--0--------|-0-0----0-0----|-5--------|--3----2-----||-|
||o-0--------|-0-0----0-0----|-3--------|--1----0----o||-|
||--0--------|-0-0----0-0----|----------|-------------||-|


W +W W H H 8x
||-----------|------------|------------|----------||-|
||o----------|------------|------------|---------o||-|
||-----------|------------|------------|-3----2---||-|
||-----------|------------|-(5)--------|-3----2---||-|
||o-5--------|-(5)--------|--3---------|-1----0--o||-|
||-----------|------------|------------|----------||-|
|
| TP TP TP TP
| W W W W 8x
||-----------|------------|------------|----------||-|
||o----------|------------|------------|---------o||-|
||--7--------|--7---------|--5---------|-9--------||-|
||--7--------|--7---------|--5---------|-7--------||-|
||o----------|------------|------------|---------o||-|
||-----------|------------|------------|----------||-|


PM| PM| PM| PM|
W E E Q E E Q E E Q E E Q
|----------|---------------|---------------|
|----------|---------------|---------------|
|-7--------|---------------|---------------|
|----------|-0-0----0-0----|-0-0----0-0----|
|-5--------|-0-0----0-0----|-0-0----0-0----|
|----------|-0-0----0-0----|-0-0----0-0----|
|
| PM| PM| PM| PM|
| W E E Q E E Q E E Q E E Q
|----------|---------------|---------------|
|----------|---------------|---------------|
|----------|---------------|---------------|
|-0--------|-0-0----0-0----|-0-0----0-0----|
|-0--------|-0-0----0-0----|-0-0----0-0----|
|-0--------|-0-0----0-0----|-0-0----0-0----|


D.S.
PM------| PM| PM----|
E E E E E E E E E E E E E E E E
|-----------------|--------------------|
|-----------------|--------------------|
|-----------------|--------------------|
|-----------------|-----------3-3-3----|
|-----------------|-----------3-3-3----|
|-0-1-2-2-1-2-1-0-|-2-1-0-1-2----------|
|
| PM------| PM| PM----|
| E E E E E E E E E E E E E E E E
|-----------------|--------------------|
|-----------------|--------------------|
|-----------------|--------------------|
|-----------------|-----------3-3-3----|
|-----------------|-----------3-3-3----|
|-0-1-2-2-1-2-1-0-|-2-1-0-1-2----------|


$$
PM------| PM| PM----| PM------| PM|
E E E E E E E E E E E E E E E E 3x E E E E E E E E
|--||------------------|------------------||-----------------|
|--||o-----------------|-----------------o||-----------------|
|--||------------------|------------------||-----------------|
|--||------------------|-----------3-3-3--||-----------------|
|--||o-----------------|-----------3-3-3-o||-----------------|
|--||--0-1-2-2-1-2-1-0-|-2-1-0-1-2--------||-0-1-2-2-1-2-1-0-|


PM----| PM------| PM| PM----|
E E E E E E E E E E E E E E E E E E E E E E E E
|-----------------|-----------------|--------------------|
|-----------------|-----------------|--------------------|
|-----------------|-----------------|--------------------|
|-----------3-3-3-|-----------------|-----------3-3-3----|
|-----------3-3-3-|-----------------|-----------3-3-3----|
|-2-1-0-1-2-------|-0-1-2-2-1-2-1-0-|-2-1-0-1-2----------|


PM------| PM| PM----| PM------| PM| PM| PM| PM
E E E E E E E E E E E E E E E E E E E E E E E E E E E E E E E E
|-----------------|-----------------|-----------------|-----------------|
|-----------------|-----------------|-----------------|-----------------|
|-----------------|-----------------|-----------------|-----------------|
|-----------------|-----------3-3-3-|-----------------|-----------------|
|-----------------|-----------3-3-3-|-----------------|-----------------|
|-0-1-2-2-1-2-1-0-|-2-1-0-1-2-------|-0-1-2-2-1-2-1-0-|-2-1-0-2-1-0-2-1-|
|
| Gtr IV
| H E Q E Q E Q E Q
|-----------------|-----------------|-----------------|-----------------|
|-----------------|-----------------|-----------------|-----------------|
|-----------------|-----------------|-----------------|-----------------|
|-----------------|-----------------|-----------------|-----------------|
|-----------------|-----------------|-----------2-----|-2-----2-----2---|
|-----------------|-----------------|-----------2-----|-2-----2-----2---|


3/4
PM--| PM------| PM| PM-----|
E E E E E E E E E E E E E E E E E E E E E E
|-------------|-----------------|------------------|
|-------------|-----------------|------------------|
|-------------|-----------------|------------------|
|-------3-3-3-|-----------------|------------3-3-3-|
|-------3-3-3-|-----------------|------------3-3-3-|
|-0-1-2-------|-0-1-2-2-1-2-1-0-|-2-1-0-1--2-------|
|
| W H E Q E Q H.
|-------------|-----------------|------------------|
|-------------|-----------------|------------------|
|-------------|-----------------|------------------|
|-------------|-----------------|------------------|
|-------------|-----------2-----|-2----------------|
|-------------|-----------2-----|-2----------------|


PM------| PM| PM----|
E E E E E E E E E E E E E E E E
|-----------------|-------------------|
|-----------------|-------------------|
|-----------------|-------------------|
|-----------------|------------3-3-3--|
|-----------------|------------3-3-3--|
|-0-1-2-2-1-2-1-0-|-2-1-0-1-2---------|
|
| H E Q E Q H.
|-----------------|-------------------|
|-----------------|-------------------|
|-----------------|-------------------|
|-----------------|-------------------|
|-----------2-----|-2-----------------|
|-----------2-----|-2-----------------|


PM------| PM| PM-----| PM------| PM| PM| PM| PM
E E E E E E E E E E E E E E E E E E E E E E E E E E E E E E E E
|-----------------|------------------|-----------------|-----------------|
|-----------------|------------------|-----------------|-----------------|
|-----------------|------------------|-----------------|-----------------|
|-----------------|------------3-3-3-|-----------------|-----------------|
|-----------------|------------3-3-3-|-----------------|-----------------|
|-0-1-2-2-1-2-1-0-|-2-1-0--1-2-------|-0-1-2-2-1-2-1-0-|-2-1-0-2-1-0-2-1-|
|
| H E Q E Q H. H E Q E Q E Q E Q
|-----------------|------------------|-----------------|-----------------|
|-----------------|------------------|-----------------|-----------------|
|-----------------|------------------|-----------------|-----------------|
|-----------------|------------------|-----------------|-----------------|
|-----------2-----|-2----------------|-----------2-----|-2-----2-----2---|
|-----------2-----|-2----------------|-----------2-----|-2-----2-----2---|


3/4 4/4
PM--|
E E E E E E E E E E E E E E E E E E E E E E 18x
|-------------||------------------|------------------||-|
|-------------||o-----------------|-----------------o||-|
|-------------||------------------|------------------||-|
|-------3-3-3-||------------------|-----------3-3-3--||-|
|-------3-3-3-||o-0-1-2-2-1-2-1-0-|-2-1-0-1-2-3-3-3-o||-|
|-0-1-2-------||--0-1-2-2-1-2-1-0-|-2-1-0-1-2--------||-|
|
| W E E E E E E E E E E E E E E E E 18x
|-------------||------------------|------------------||-|
|-------------||o-----------------|-----------------o||-|
|-------------||------------------|------------------||-|
|-------------||------------------|-----------3-3-3--||-|
|-------------||o-0-1-2-2-1-2-1-0-|-2-1-0-1-2-3-3-3-o||-|
|-------------||--0-1-2-2-1-2-1-0-|-2-1-0-1-2--------||-|


3/4 4/4 3/4
E E E E E E E E E E E E E E E E 8x E E E E E E E E E E E E
|-||------------------|------------------||-------------|--------------|
|-||o-----------------|-----------------o||-------------|--------------|
|-||------------------|------------------||-------------|--------------|
|-||------------------|-----------3-3-3--||-------------|--------------|
|-||o-0-1-2-2-1-2-1-0-|-2-1-0-1-2-3-3-3-o||-0-1-2-2-1-2-|-2-1-0-2-1-0--|
|-||--0-1-2-2-1-2-1-0-|-2-1-0-1-2--------||-0-1-2-2-1-2-|-2-1-0-2-1-0--|
|
| PM----------------------|
| E E E E E E E E E E E E E E E E 8x E E E E E E E E E E E E
|-||------------------|------------------||-------------|--------------|
|-||o-----------------|-----------------o||-------------|--------------|
|-||------------------|------------------||-------------|--------------|
|-||------------------|-----------3-3-3--||-------------|--------------|
|-||o-0-1-2-2-1-2-1-0-|-2-1-0-1-2-3-3-3-o||-------------|--------------|
|-||--0-1-2-2-1-2-1-0-|-2-1-0-1-2--------||-2-1-0-2-1-0-|-2-1-0-2-1-0--|


4/4
W +W W H H 10x
||-----------|------------|------------|----------||--|
||o----------|------------|------------|---------o||--|
||-----------|------------|------------|-3----2---||--|
||-----------|------------|-(5)--------|-3----2---||--|
||o-5--------|-(5)--------|--3---------|-1----0--o||--|
||-----------|------------|------------|----------||--|
|
| TP TP TP TP
| W W W W 10x
||-----------|------------|------------|----------||--|
||o----------|------------|------------|---------o||--|
||--7--------|--7---------|--5---------|-9--------||--|
||--7--------|--7---------|--5---------|-7--------||--|
||o----------|------------|------------|---------o||--|
||-----------|------------|------------|----------||--|


PM| PM| PM| PM|
W E E Q E E Q E E Q E E Q
|----------|---------------|---------------|
|----------|---------------|---------------|
|-7--------|---------------|---------------|
|----------|-0-0----0-0----|-0-0----0-0----|
|-5--------|-0-0----0-0----|-0-0----0-0----|
|----------|-0-0----0-0----|-0-0----0-0----|
|
| PM| PM---------| PM|
| W E E Q E E Q E E Q E E Q
|----------|---------------|---------------|
|----------|---------------|---------------|
|----------|---------------|---------------|
|-0--------|-0-0----0-0----|-0-0----0-0----|
|-0--------|-0-0----0-0----|-0-0----0-0----|
|-0--------|-0-0----0-0----|-0-0----0-0----|


PM------| PM| PM--|
E E E E E E E E E E E E E E E E E Q
|-----------------|------------------|-------------|
|-----------------|------------------|-------------|
|-----------------|------------------|-------------|
|-----------------|-----------3-3-3--|---0---------|
|-----------------|-----------3-3-3--|---0---------|
|-0-1-2-2-1-2-1-0-|-2-1-0-1-2--------|-0-0---------|
|
| PM------| PM| PM--|
| E E E E E E E E E E E E E E E E E Q H.
|-----------------|------------------|-------------|
|-----------------|------------------|-------------|
|-----------------|------------------|-------------|
|-----------------|-----------3-3-3--|---0---------|
|-----------------|-----------3-3-3--|---0---------|
|-0-1-2-2-1-2-1-0-|-2-1-0-1-2--------|-0-0---------|


Duration Legend
---------------
W - whole; H - half; Q - quarter; E - 8th; S - 16th; T - 32nd; X - 64th; a - acciaccatura
+ - note tied to previous; . - note dotted; .. - note double dotted
Uncapitalized letters represent notes that are staccato (1/2 duration)
Irregular groupings are notated above the duration line
Duration letters will always appear directly above the note/fret number it represents the
duration for. Duration letters with no fret number below them represent rests. Multi-
bar rests are notated in the form Wxn, where n is the number of bars to rest for. Low
melody durations appear below the staff

Tablature Legend
----------------
h - hammer-on
p - pull-off
b - bend
pb - pre-bend
r - bend release (if no number after the r, then release immediately)
/\ - slide into or out of (from/to "nowhere")
s - legato slide
S - shift slide
- natural harmonic
[n] - artificial harmonic
n(n) - tapped harmonic
~ - vibrato
tr - trill
T - tap
TP - trem. picking
PM - palm muting

/ - tremolo bar dip; n = amount to dip

- tremolo bar down
n/ - tremolo bar up
/n\ - tremolo bar inverted dip
= - hold bend; also acts as connecting device for hammers/pulls
<> - volume swell (louder/softer)
x - on rhythm slash represents muted slash
o - on rhythm slash represents single note slash

Misc Legend
-----------
| - bar
|| - double bar
||o - repeat start
o|| - repeat end
*| - double bar (ending)
: - bar (freetime)
$ - Segno
& - Coda
Tempo markers - = BPM(8/16=s8/s16), where s8 = swing 8ths, s16 = swing 16ths

Related Metallica Tabs

Kirk Crammet Solo tabs
Aint My Bitch3 tabs
Shoot Me Again Bass tabs
The Call Of Ktulu tabs
God That Failed tabs
Low Mans Lyric tabs
Requiem For A Marionette tabs
Ronnie tabs
All Within My Hands tabs
One The Whole Thing tabs
Enter Sandman (intro) tabs
We Did It Again tabs
To Live Is To Die Solo tabs
The Outlaw Torn tabs
Anestheia tabs
Am I Evil 3 tabs
Leper Messiah tabs
Damage Inc tabs
No Leaf Clover tabs
One Solo tabs


Guitar Tabs




All tabs are property and copyright of their owners. All tabs provided for educational purposes only. Privacy Policy, DMCA, Links