Metallica

Slither Bass Tabs



More from Metallica

Metallica Tabs
Metallica Chords
Metallica Bass
Metallica Lyrics



this is jus in riffs not chorus or verse.

Intro
G----------------
D----------------
A----------------
E-7-6-4~--6-5-3~-

G-----------------------
D-----------------------
A-----------------------
E-7-6-4~--6-5-3~-3-3-0R-

G-----------
D-----------
A-----------
E-0~~-7-6-5-

Riff 1
G----------------------------------
D----------------------------------
A-6-66----6-66----6-66-------------
E------p5------p5-------p5-7-6-5-4-

Riff 2
G-------------------------------------------------
D-------------------------------------------------
A--1------------1------------1------------1-------
E-0--0-3-5-3-5-0--0-3-5-3-5-0--0-3-5-3-5-0--0-3-1-

Riff 3
G---------------------
D---------------------
A---------------------
E-0-1-00-1-0-1-00-0-1-

G-----------------------------
D-----------------------------
A-2-3-22-3-2-3-22-2-3---------
E---------------------7-6-5-4-

Riff 4
G-----------------------------------------------------
D-----------------------------------------------------
A-----------------------------------------------------
E-4-4-4-4-4-4-4-6-5-3-3-3-3-3-3-3-7-6-5-5-5-5-5-5-5-5-

G---------------------------------
D---------------------------------
A---------------------------------
E-5-4-3-3-3-3-3-3-XX-3-XX-3-XX-2~-

Riff 5
G------------------------------------
D------------------------------------
A-6-66-----6-66-----6-66-------------
E------5^0------5^0------5^0-7-6-5-4-

Riff 6
G--------------------------------------------------------------------
D--------------------------------------------------------------------
A--------------------------------------------------------------------
E-4-4-4-4-4-4-4-4-4-4-4-4-4-4-4-4-4-4-4-4-4-4-4-4-4-4-4-4-4-4-4-/16-

Riff 7
G----------------------------------------------------
D----------------------------------------------------
A-------1-3-1-3-------1-3-1-3-------1-3-1-3------3-1-
E-0-3-0---------0-3-0---------0-3-0---------0-3-0----

Riff 8
G----------------------
D----------------------
A-1-3-------1-3--------
E-----0-00-1---0-00-1-- x2

Riff 9
G---------------------------------------------
D---------------------------------------------
A---------------------------------------------
E-3-3-3-3-3-3-4-4-4-4-4-4-5-5-5-5-5-7-7-7-7-7-

G---------------------------------------------
D---------------------------------------------
A-3-3-3-3-3-3-5-5-5-5-5-5-7-7-7-7-7-9-9-9-9-9-
E---------------------------------------------

Brought to you by the BassMasta - http://www.tabs-database.com



Related Metallica Bass Tabs

Bass/guitar Doodle In Paris bass
Fuel bass
Low Mans Lyric bass
The Memory Remains bass
Seek And Destroy bass
Some Kind Of Monster Intro bass
Damage Inc (perfect) bass
Orion(instrumental) bass
Turn The Page bass
The House Jack Built bass
Orion Bass Interude/solo bass
And Justice For All -album bass
Ride The Lightning bass
So F***ing What bass
Better Than You bass
Bass Solo bass
Purify bass
King Of Nothing bass
Bass And Guitar Solo Tribute bass
Die Die Die My Darling (misfit Cover) bass


Guitar Tabs




All tabs are property and copyright of their owners. All tabs provided for educational purposes only. Privacy Policy, DMCA, Links