Metallica

Sabbra Cadabra Tabs



More from Metallica

Metallica Tabs
Metallica Chords
Metallica Bass
Metallica Lyrics

Sabbra Cadabra - Metallica
tabbed by Jabba0910@aol.com


Tune Down One Whole Step
Triplets Throughout

Intro

D|-----------||----------------------------|-------------------------|
A|-----------||-o--------------------------|-------------------------|
F|---------7-||--------------------------7-|-------------------------|
C|-----------||-o--9--9---9-~-~------------|-9--9---9-~-~----------7-|
G|-7--8h9----||------------------7--8h9----|---------------7--8h9----|
D|-----------||----------------------------|-------------------------|

_______________________________
|1. |
|---------------------------|-------------------------------||
|---------------------------|-----------------------------o-||
|---------------------------|--------------------------7----||
|-------------------------7-|-----------------------------o-||
|-7br-5------------7--8h9---|-7br-5------------7--8h9-------||
|--------7--7-~-~-----------|--------7--7-~-~---------------||

___________________________
|2. Riff A
|---------------------------|------------------------|
|---------------------------|------------------------|
|-------------------------7-|----------------------7-|
|---------------------------|-9--9---9-~-~-----------|
|-7br-5------------7-8h9----|---------------7-8h9----|
|--------7--7-~-~-----------|------------------------|


|------------------------|---------------------------|---------------------------|
|------------------------|---------------------------|---------------------------|
|------------------------|---------------------------|-------------------------7-|
|-9--9---9-~-~---------7-|-------------------------7-|---------------------------|
|---------------7-8h9----|-7br-5------------7-8h9----|-7br-5------------7-8h9----|
|------------------------|--------7--7-~-~-----------|--------7--7-~-~-----------|


(end Riff A)
|------------------------|---------------------------|---------------------------|
|------------------------|---------------------------|---------------------------|
|------------------------|---------------------------|-------------------------7-|
|-9--9---9-~-~---------7-|-------------------------7-|---------------------------|
|---------------7-8h9----|-7br-5------------7-8h9----|-7br-5------------7-8h9----|
|------------------------|--------7--7-~-~-----------|--------7--7-~-~-----------|



w/wah
|-----------------------------|---------------------|-------------------------|
|-----------------------------|---------------------|-------------------------|
|-----------------------------|---------------------|-------------------------|
|-----------------------------|---------------------|-------------------------|
|-7br-5---------------5-----5-|-7-~-~-~-~-7--7--7br-|(7)----5--7--5--7--5---7/|
|--------7--7-~-~--7-----7----|---------------------|-------------------------|
|
|
|-----------------------------|---------------------|-------------------------|
|-----------------------------|---------------------|-------------------------|
|-----------------------------|---------------------|-------------------------|
|-----------------------------|--------------9------|----------------11----11/|
|-7br-5------------5---7---5--|---------9-----------|----------11-------------|
|--------7--7-~-~-------------|-7----7---------7--7/|9------9-----------9---9/|




|--------------------------|----------------------------|---------------------|
|--------------------------|----7b----------------------|---------------------|
|----7---------------------|----7b----------------------|---------------------|
|-------9--9-~-~-~--9---7--|-9----------9--7--(7)\------|---------------------|
|/9------------------------|-------------------------7/-|-9--7\5--7--5--7---9\|
|--------------------------|----------------------------|---------------------|
|
|
|--------------------------|----------------------------|---------------------|
|--------------------------|----------------------------|---------------------|
|--------------------------|----------------------------|---------------------|
|/12------------12---------|----14------14----14---(14)\|-------9-----9-----9/|
|---------12---------------|------------14----14---(14)\|-------9-------------|
|/10--10------------10--10/|12------12--12----12---(12)\|-7--7-----------7--7/|



|---------------------------------|-------------------10---------|
|---------------------------------|-----------------------12--12-|
|---------------------------------|----7-------4/11--------------|
|---------------------------------|--------9\--------------------|
|-\7--------7---5---7---5-~-~--7/|9-----------------------------|
|---------------------------------|------------------------------|
|
|
|---------------------------------|------------------------------|
|---------------------------------|------------------------------|
|---------------------------------|------------------------------|
|-/11----11--------11-------------|-------------12----12---------|
|------------------11----------11/|12-----------12---------------|
|--/9----------9------------9---9/|10------10-------------10--10-|


wah off Riff B
|--------------------------|----------------------|----------------------|
|-12p10--------------------|-10--12----12-~-~-~-~-|-10--12----12-~-~-~-~-|
|--------11--9--7b---------|----------------------|----------------------|
|-----------------------9\-|----------------------|----------------------|
|--------------------------|----------------------|----------------------|
|--------------------------|----------------------|----------------------|
|
| Rhy.Fig.1
|--------------------------|----------------------|----------------------|
|--------------------------|----------------------|----------------------|
|--------------------------|----------------------|----------------------|
|------14----14-/16\14--14\|----------------------|----------------------|
|------------14-/16\14--14\|-7--9----9----9--9--9-|-7--9----9----9--9--9-|
|-/12----------------------|-7--7----7----7--7--7-|-7--7----7----7--7--7-|



|-----------------------|---------------------------|
|------------...--------|---.-----------------------|
|-11b-11b-11b---r(11)p9-|-9b-r(9)p7-----------------|
|-----------------------|-----------9--9-~-~-~-(9)/-|
|-----------------------|---------------------------|
|-----------------------|---------------------------|
| (end Riff B)
| (end Rhy.Fig.1)
|-----------------------|---------------------------|
|-----------------------|---------------------------|
|-----------------------|---------------------------|
|-----------------------|---------------------------|
|-7---6---7---6---4---2-|-7---9-----9-----9---7---7-|
|-5---4---5---4---2---0-|-7---7-----7-----7---7---7-|
PM*********



1st, 2nd, and 3rd Verses
%
|----------------------|----------------------|----------------------|
|----------------------|----------------------|----------------------|
|----------------------|----------------------|----------------------|
|----------------------|----------------------|----------------------|
|-7--9----9----9--9--9-|-7--9----9----9--9--9-|-7--7----7----7--7--7-|
|-7--7----7----7--7--7-|-7--7----7----7--7--7-|-5--5----5----5--5--5-|
1. Feel so good I feel so fine Love that little lady always
2.3.Feel so happy sinceI met that girl when we're makin love it's something


|----------------------|----------------------|----------------------|
|----------------------|----------------------|----------------------|
|----------------------|----------------------|----------------------|
|----------------------|----------------------|----------------------|
|-9--9----9----9--7--7-|-7--9----9----9--9--9-|-7--9----9----9--9--9-|
|-7--7----7----7--7--7-|-7--7----7----7--7--7-|-7--7----7----7--7--7-|
1. on my mind She gives me lovin ev'ry night and day
2.3.out of this world. Feels so good to know that she's all mine


|----------------------|----------------------||------------0---------|
|----------------------|----------------------||------------0---------|
|----------------------|----------------------||----------------------|
|----------------------|----------------------||-2----------2---------|
|-7--7----7----7--7--7-|-9--9----9----9--9\---||-2----------2---------|
|-5--5----5----5--5--5-|-7--7----7----7--7\---||-0----------0---------|
1. Never gonna leave her never going away
2.3.Gonna love that woman till the end of time


|------------------------|-----------2---------|----------------------|
|------------------------|-----------2---------|----------------------|
|------------------------|---------------------|----------------------|
|---------------2----2---|-4---------4---------|-4----4----4----------|
|---------------2----2---|-4---------4---------|-4----4----4----------|
|---------------0----0---|-2---------2---------|-2----2----2----14\---|
1. Someone to love me you know she makes me feel alright
2.3.Someone to live for love me till the end of time



|----------------------|----------------------|-----------------------|
|-10--12----12---------|-10--12----12---------|------------...--------|
|----------------------|----------------------|-11b-11b-11b---r(11)p9-|
|----------------------|----------------------|-----------------------|
|----------------------|----------------------|-----------------------|
|----------------------|----------------------|-----------------------|
|
|
|----------------------|----------------------|-----------------------|
|----------------------|----------------------|-----------------------|
|----------------------|----------------------|-----------------------|
|----------------------|----------------------|-----------------------|
|-7--9----9----9--9--9-|-7--9----9----9--9--9-|-7---6---7---6---4---2-|
|-7--7----7----7--7--7-|-7--7----7----7--7--7-|-5---4---5---4---2---0-|
PM *********
1. yeah Alright
2.3. yeah




|---------------------------|---------------0----------|
|---...---------------------|---------------0----------|
|-9b---r(9)p7---------------|--------------------------|
|-------------9--9-~-~-(9)\-|--------------------------|
|---------------------------|--------------------------|
|---------------------------|-0------------------------|
|
|
|----------------------------|---------------0----------|
|----------------------------|---------------0----------|
|----------------------------|--------------------------|
|----------------------------|-2-------------2----------|
|-7---9------9-----9---------|-2-------------2----------|
|-7---7------7-----7----10\--|-0-------------0----------|
1.
2.3.Hey, hey, hey, yeah. She

_________________________________
3rd time to Coda @|1.
|----------------------------|--------------------|---------------------------------|
|----------------------------|--------------------|---------------------------------|
|-9---9---7---9-----9---(9)\-|--------------------|-/11--11--11--11--14--16---(16)\-|
|----------------------------|-4--------4---------|---------------------------------|
|-7---7---5---7-----7---(7)\-|-4--------4---------|--/9---9---9---9--12--14---(14)\-|
|----------------------------|-2--------2---------|---------------------------------|
1.Someone who needs me love me every single night
2.3.makes me feel happy It's


___________________________________________________________________________
w/Riff B
w/Rhy.Fig.1 (2 times)
|---------------------|--------------------|------------|-------------------|
|-14--15----15-~-~-~--|-14--15----15-~-~-~-|------------|-17brp15-----------|
|---------------------|--------------------|------------|---------16-16-~-~-|
|---------------------|--------------------|------------|-------------------|
|---------------------|--------------------|------------|-------------------|
|---------------------|--------------------|------------|-------------------|
yeah


___________________________________________________________________________________
~~~~ ~~~~~ ~~~~~ |
|-----------------------------|-------------------|----------|----------------------||
|-14--15----15----15-15p14----|-14--15----15------|----------|-17brp15------------o-||
|--------------------------16-|-------------------|----------|---------16-16-----\--||
|-----------------------------|-------------------|----------|--------------------o-||
|-----------------------------|-------------------|----------|----------------------||
|-----------------------------|-------------------|----------|----------------------||

_______________________________ Interlude
|2. Riff C
|-------------------------------||---------------|-----------------------|
|-------------------------------||-----------3p0-|----------3p0----------|
|-/11--11---9---9---7---9--(9)\-||---------------|-4-----4---------------|
|-------------------------------||-4----4--------|----4------------------|
|--/9---9---7---7---5---7--(7)\-||-2-------------|------------------0--1-|
|-------------------------------||---------------|---------------2-------|


w/Riff C (9 times)
|-----------------||---------------|--------------|------------|
|-----------------||-o-------------|--------------|------------|
|-----------------||----4---2------|--------------|-4---2------|
|-----------------||-o----------4--|---2----------|---------4--|
|-----------------||---------------|-------5---4--|------------|
|-----------------||---------------|--------------|------------|


___________________________________________
|1. |
|---------------|---------------|--------------|--------------|-------------||
|---------------|---------------|---------3p2--|--------------|-----------o-||
|---------------|---------------|-----2p1------|--4-----------|-------------||
|----2----------|---------------|--------------|--------------|-----------o-||
|--------5---4--|--2------------|--------------|--------------|-------------||
|---------------|---------------|--------------|--------------|-------------||


_________________
|2.
|-----------------|---------|------------|------------|-------------|
|----12p10--------|---------|------------|------------|-------------|
|----------11-9-7-|---------|------------|------------|------7---6--|
|-----------------|-9-~-~-~-|-~-~-~-(9)\-|-4--2-------|------5---4--|
|-----------------|---------|------------|-2--0----4--|--2----------|
|-----------------|---------|------------|---------2--|--0----------|


Riff D (end Riff D)
~~~ ~~~ trill
|---------|---------||------------------------------|--------------------------------||
|---------|---------||-o----------------------------|------------------------------o-||
|---------|---------||------------------------------|--------------------------------||
|--4---2--|---------||-o----------------------3-2---|-----------5br-------2h3-2(3)-o-||
|--2---0--|--4---2--||-----3h5-5-5---5-3h5-3h5------|-3h5-5-5-5-----3----------------||
|---------|--2---0--||------------------------------|-------------------5------------||


w/Riff D
~~~ ~~~ trill
||-------------------------------|-----------------------------------||
||-o-----------------------------|---------------------------------o-||
||-------------------------------|-----------------------------------||
||-o------------------------7\5--|------------7br------------------o-||
||---/7h8-8--8----8-7h8-7h8------|-/7h8-8-8-8-----7------7h8--7(8)---||
||-------------------------------|---------------------8-------------||


Rhy.Fig.2 (end Rhy.Fig.2)
|---------------------------|-------------------------------|
|---------------------------|-------------------------------|
|---------------------------|-------------------------------|
|--7----7--7---10----10--10-|-------------------------------|
|--5----5--5----8-----8---8-|-10----10--10---12----12---12--|
|---------------------------|--8-----8---8---10----10---10--|
I am the world that hides the universal secret of all time


repeat Riff D
2 measures

w/Rhy.Fig.2
Destruction of the empty spaces
is my one and only crime

repeat Riff D
2 measures

Rhy.Fig.3 (end Rhy.Fig.3) w/Riff D
|----------------------------|---------------------------|---------------|
|----------------------------|---------------------------|---------------|
|----------------------------|---------------------------|---------------|
|----------------------------|---------------------------|---------------|
|--8-----8--8---7-----7---7--|-3-----3--3---5-----5---5--|---------------|
|--6-----6--6---5-----5---5--|-1-----1--1---3-----3---3--|---------------|





w/Rhy.Fig.3
The thoughts and images
the unborn child that never was conceived.


Riff E (2 guitars; 1 w/wah and slight adlib)
|-------------------------------|---------------------------------|
|-------------------------------|-------10\----------------10b----|
|-------------------------------|-------10\----------------10b----|
|--------------------3b---------|-------10\-----------------------|
|-3--5-------3h5-3h5----5--3----|-3--5--------------------------0-|
|---------5-------------------5-|------------/10--10-10-10--------|
PM ********
You gotta believe me

w/Riff E
Hey! I'm talkin to you
Well, I know it's hard for you to know the reason why
And I know you'll understand more when it's time to die
I don't believe the life you have will be the only one
You have to let your body sleep to let your soul live on. Ha ha



~~~~ ~~~~ ~~~~ ~~~~~ ~~~~~ ~~~~
|----------------------------------|---------------------------------|
|----------------------------------|---------------------------------|
|----------------------------------|---------------------------------|
|----------------------------------|---------------------------------|
|-3h5--5----3----3-----------------|-3/5-----3----3------------------|
|------------------3br(3)----1-----|-----------------3--3br---1----0-|


|----------------------------|-------------------------------------------------||
|----------------------------|-------------------------------------------------||
|----------------------------|-----------------------------------------------7-||
|----------------------------|-------------------------------------------------||
|-3/5--5--5/7--7--7br---5--7-|-5/7---7--7--7--7--7--7--7--7--7--7--7---7h8h9---||
|----------------------------|-------5--5--5--5--5--5--5--5--5--5--5-----------||
PM *******************************


repeat Riff A
to Coda%
-|-------------------------||
-|-------------------------||
-|-------------------------||
-|-------------------------||
-|-9\7--5-----7/9--7-------||
-|---------7--7--------10\-||
Woah!



Coda @

|------------------------------------|
|------------------------------------|
|-/11--11--11--11---14---16----(16)\-|
|------------------------------------|
|--/9---9---9---9---12---14----------|
|------------------------------------|
good to know that she's all mine


w/Rhy.Fig.1 (2 times)
She's all mine, yeah
Yo, woah, yeah yeah


|-------------------------------------|-----------------------|
|-10--12-----12-~-~-~--12---12p10-----|-10--12-----12-------0-|
|----------------------------------11-|-----------------------|
|-------------------------------------|-----------------------|
|-------------------------------------|-----------------------|
|-------------------------------------|-----------------------|


|-------------------------------|-----------------------|-------------||
|--------------...--------------|-----------------------|-------------||
|-11b--11b--11b---r(11)p9\7--9--|--9brp7----------------|-------------||
|-------------------------------|---------9---9------9--|-------------||
|-------------------------------|-----------------------|-------------||
|-------------------------------|-----------------7-----|-------------||

end

Related Metallica Tabs

Dyers Eve Bass tabs
Am I Evil 3 tabs
2x4 (full Tab) tabs
Unnamed Feeling tabs
Aint My Bitch3 tabs
From Whom The Bell Tolls tabs
Ecstacy Of Gold tabs
Orion Btab tabs
I Am Evil tabs
Follow Me tabs
March Of The Dead tabs
Enter Sandman (complete And Original!!) tabs
Jump In The Fire (intro) tabs
Metal Militia tabs
Sanitarium tabs
Kirk And Guitars tabs
Minus Human Bass tabs
Garage Days Re-visited Album tabs
Master of Puppets (intro) tabs
The Four Horsemen Solo tabs


Guitar Tabs




All tabs are property and copyright of their owners. All tabs provided for educational purposes only. Privacy Policy, DMCA, Links