Metallica

Orion Bass Interude/solo Bass Tabs



More from Metallica

Metallica Tabs
Metallica Chords
Metallica Bass
Metallica Lyrics




|-----11---9---|--9-----9---|---- 11---9---|--9---------|-----11---9---|
|---11---7---7-|9---9-------|---11---7---7-|9---9-------|---11---7---7-|
|9-------------|------7---7-|9-------------|------7-----|9-------------|
|--------------|------------|--------------|------------|--------------|

|--9---------|------11---9---|--9--/9999---|
|9---9---9---|----11---7---7-|9---9-----119|
|------7---7-|9--------------|-------------|
|------------|---------------|-------------|

|---- 11---9---|--9-----9---|---- 11---9---|--9---------|-----11---9---|
|---11---7---7-|9---9-------|---11---7---7-|9---9-------|---11---7---7-|
|9-------------|------7---7-|9-------------|------7-----|9-------------|
|--------------|------------|--------------|------------|--------------|

|--9---------|-----11---9---|99999996----|
|9---9---9---|---11---7---7-|--------97--|
|------7---7-|9-------------|----------97|
|------------|--------------|------------|

|-----11---9---|--9-----9---|-----11---9---|--9---696---|
|---11---7---7-|9---9-------|---11---7---7-|9---9----976|
|9-------------|------7---7-|9-------------|------------|
|--------------|------------|--------------|------------|

|-----11---9---|--9-----9---|-----11---9-9-|--9-9-976---|
|---11---7---7-|9---9------7|---11---7-----|9--------976|
|9-------------|------7---7-|9-------------|------7-----|
|--------------|------------|--------------|------------|

|-----11---9---|--9-----9---|---- 11---9---|--9---------|
|---11---7---7-|9---9-------|---11---7---7-|9---9-97----|
|9-------------|------7---7-|9-------------|--------97-7|
|--------------|------------|--------------|----------9-|

|-----11---9---|--9---------|-----11---9---|------------|
|---11---7---7-|9---9----976|---11---7---7-|9-9-9-------|
|9-------------|------7-----|9-------------|------777777|
|--------------|------------|--------------|------------|

|-----11---9---|--9-----9---|-----11---9---|--9---99996-|
|---11---7---7-|9---9-------|---11---7---7-|9---9------9|
|9-------------|------7---7-|9-------------|------------|
|--------------|------------|--------------|------------|

|-----11---9---|--9---------|------11---9---|99999996----|
|---11---7---7-|9---9----976|---11----7---7-|--------97--|
|9-------------|------7-----|9--------------|----------97|
|--------------|------------|---------------|------------|

|-----11---9---|--9-----9---|-----11---9---|111111111111119--------|
|---11---7---7-|9---9-------|---11---7---7-|----------------119----|
|9-------------|------7-----|9-------------|-------------------12--|
|--------------|------------|--------------|---------------------12|

X4 Times
||------11------------|--9----------||
||:---11------14------|9--96---76--:||
||-9-9-----12---121112|-----97---7--||
||--------------------|-------------||

||-----------------9--|---------------------||
||:-----11--11-- 11-11|12-129---------------||
||-9-912--12---12-----|---------11--111411--||
||--------------------|-------12--12--------||

||----------------------9|------------------------||
||:---------11111111--11-|1212129--9--------------||
||-121212912--------12---|-------11--------111411-||
||-----------------------|-----------121212-------||

Please Rate!



Related Metallica Bass Tabs

Slither bass
From Whom The Bells bass
So F***ing What bass
Some Kind Of Monster Intro bass
Creeping Death bass
Sweet Amber bass
Low Mans Lyric bass
Imperial March bass
Seek And Destroy (ver 2) bass
Anethesia)pulling Teeth bass
Invisible Kid bass
God Of Thunder bass
Mexico City Bass Solos bass
Welcome Home/ Sanitarium bass
Ride The Lighning bass
Master Of Puppets Bass Tab!!!!! bass
Ride The Lightning bass
Unforgiven 2 bass
King Of Nothing bass
Metal Militia bass


Guitar Tabs




All tabs are property and copyright of their owners. All tabs provided for educational purposes only. Privacy Policy, DMCA, Links