Metallica

Nothing Else Matters(100%) Bass Tabs



More from Metallica

Metallica Tabs
Metallica Chords
Metallica Bass
Metallica Lyrics




heres a great song what i had 2 tab
h=hold on
/=slide up
Verse 1
G-----------------------------------------------------------------------
D-----------------------------------------------------------------------
A---------7--------5--------------------------7--------5----------------
E--0-----------------------8----3--2---0-----------------------8----3--2

G-----------------------------------------------------------------------------------------
D-----------------------------------------------------------------------------------------
A---------7--------5-------------------------2-------------7-----------------7--7---------
E--0-----------------------8----3--2---3-------------0-----------0--0--0--0-----------3--2 x2


G----------------------------------------------------------------------
D----------------------------------------------------------------------
A---------7--------5--------------------------7--------5---------------
E--0-----------------------8----3--2--0-----------------------8----3--2

G----------------------------------------------------------------------
D----------------------------------------------------------------------
A---------7--------5-------------------------2-------------7-----3----0
E--0-----------------------8----3--2---3-------------0-----------------

Chorus
G-----------------------------------------------------------
D-----------------------------------------------------------
A--5--5--5--5--5--5---3-----0-----5--5--5--5--5--5---3-----0
E-----------------------------------------------------------

G------------------------------------
D------------------------------------
A--5--5--5------------7--------------
E------------0--------------0----3--2


G-------------------------------------------------------------
D-------------------------------------------------------------
A-----7---7--7-----7---7--7------7---7--7-----7---------------
E--0-----------0--------------0------------0-----7----5------5

G-------------------------------------------------------------------------------
D-------------------------------------------------------------------------------
A--------------------------------5----5--5--5/7--------7--------7---------------
E--5-----5/---8----8--8--7---8--------------------0-------0--0------0----0--3--2

G------------------------------------------------------------------------------
D----------------------------------------------------------7-------------------
A-----7---7--7-----7---7--7------7---7--7-----7-----------------7--------------
E--0-----------0--------------0------------0-----7----5--------------5-----5--7

G---------------------------------------------------------------
D--------------------------7-----7------------------------------
A---------------------5-------5-----7---------7---7-------------
E--8----8--8--7---8----------------------0-------------0----3--2

when the Guitar Solo starts u play
G-------------------------------------------------------------------
D-------------------------------------------------------------------
A-------7--7---5--5-----------------7--7---5--5-----------------2---
E--0--0--------------8--3--2---0--0--------------8--3--2---3-------0
outro
G---------------
D---------------
A---------------
E--0-----------0
enjoy!!!!!!!!!!!!!!!!!!!!!!!!!!!!!!!!!!!!!!!!!!!!!!!



Related Metallica Bass Tabs

King Of Nothing bass
For Whom The Bell Tolls(improved) bass
Bass Solo Seattle 1989 bass
Ride The Lightning bass
To Live Is To Die bass
My Friend Of Misery bass
Prince Charming bass
Ronnie bass
Enter Sandman (perfect) bass
My World Bass Solo bass
Linus And Lucy bass
No Remorse bass
Orion (bass Solos) bass
Carpe Diem Bay bass
Reef bass
Trapped Under Ice bass
Enter Sandman, For Whom The Bell Tolls And Master Of Puppets bass
Don't Tread On Me bass
The Four Horsemen (live) bass
Fuel Bass Tab bass


Guitar Tabs




All tabs are property and copyright of their owners. All tabs provided for educational purposes only. Privacy Policy, DMCA, Links