Metallica

Nothing Else Mathers Tabs



More from Metallica

Metallica Tabs
Metallica Chords
Metallica Bass
Metallica Lyrics

tabs-database.com[http://www.tabs-database.com.com/]
Intro -

----------0--------|-----------0--------|-----------0--------|

-------0-----0-----|--------0-----0-----|--------0-----0-----|

----0-----------0--|-----0-----------0--|-----0-----------0--|

-------------------|--------------------|--------------------|

-------------------|--------------------|--------------------|

-0-----------------|--0-----------------|--0-----------------|



----------0-----7--|--7--------7p0--------|--------7--8--7h8/5--|--7--5/2-----|

-------0-----0-----|-----0-----0----0-----|--0-----0--0---------|----------5--|

----0--------------|--------0----------0--|-----0---------------|-------------|

-------------------|----------------------|---------------------|-------------|

-------------------|----------------------|---------------------|-------------|

-0-----------------|--0-------------------|--0------------------|-------------|



----------2p0--------|-----------0--0--0--|--0--------------3p0--------0--|

-5-----5-------5-----|--------5-----5--5--|--5--------5----------5-----5--|

----5-------------5--|-----5--------5--5--|--5-----5-----5----------5--5--|

---------------------|--------------------|-------------------------------|

-0-------------------|--0-----------0--2--|--3--3----------------------3--|

---------------------|--------------------|-------------------------------|



----------------0h5p0------------|---------------12^--------|

-7--------7------------7p0--0h5--|-----12^--12^-------0-----|

-7-----7-----7-------------------|-----12^---------------0--| ^ = harmonic

---------------------------------|--------------------------|

-5--5----------------------------|--------------------------|

---------------------------------|--0-----------------------|



----------0--------|-----------0--------|-----------0--------|

-------0-----0-----|--------0-----0-----|--------0-----0-----|

----0-----------0--|-----0-----------0--|-----0-----------0--|

-------------------|--------------------|--------------------|

-------------------|--------------------|--------------------|

-0-----------------|--0-----------------|--0-----------------|



-----------7--|--------------------|--------------7--|-------------------|

-----------8--|--------7--------5--|--------------8--|-------7--------5--|

---------9----|--------7--------5--|-----------9-----|-------7--------5--|

-------9------|-----7--------5-----|--------9--------|----7--------5-----|

-----7--------|--5--------3--------|-----7-----------|-5--------3--------|

-0------------|--------------------|--0--------------|-------------------|



-------------7--|--------------------|--------------------|

-------------8--|--------7--------5--|--------3--------4--|

----------9-----|--------7--------5--|--------4--------2--|

-------9--------|-----7--------5-----|-----5--------4-----|

----7-----------|--5--------3--------|-----------2--------|

-0--------------|--------------------|--3-----------------|



----------0--------|-----------0--------|-----------0--------|--12^--|

-------0-----0-----|--------0-----0-----|--------0-----0-----|--12^--|

----0-----------0--|-----0-----------0--|-----0-----------0--|--12^--|

-------------------|--------------------|--------------------|-------|

-------------------|--------------------|--------------------|-------|

-0-----------------|--0-----------------|--0-----------------|-------|





Verse -

----------3-----0--------|--2-----3--------0--------------|

-------0-----------0-----|-----------3--------3-----------|

----0--------0--------0--|--------------0--------0--------|

-------------------------|--0--0--------------------------|

-------------------------|-----------------3--------------|

-0-----------------------|--------------------------3--2--|



----------3-----0--------|--2-----------------------------|

-------0-----------0-----|--------3-------3-----3---------|

----0--------0--------0--|-----------2p0-----0------------|

-------------------------|--0--0--------------------------|

-------------------------|----------------3---------------|

-0-----------------------|--------------------------3--2--|



----------3-----0--------|--2-----3--------3--------|--------3--2-----2-----|

-------0-----------0-----|-----------3--------3-----|--------3--0--------0--|

----0--------0--------0--|--------------0--------0--|-----0-----2-----------|

-------------------------|--0--0--------------------|-----------------------|

-------------------------|-----------------3--------|-----------2--2--------|

-0-----------------------|--------------------------|--3--------------------|



-0--------0--------|-----------0-----------|

-------0-----0-----|--------0-----0--------|

----0-----------0--|-----0-----------------|

-------------------|-----------------------|

-------------------|-----------------------|

-0-----------------|--0--------------3--2--|





Chorus -

-0-------|--2---2-2-2-3-2--0--2--|--0-------|--2---2-2-2-3-2--0--2--|

-1----2--|--3---3-3-3-3-3--3--3--|--1----2--|--3---3-3-3-3-3--3--3--|

-0----2--|--2---2-2-2-2-2--2--2--|--0----2--|--2---2-2-2-2-2--2--2--|

-2----2--|--0---0-0-0-0-0--0--0--|--2----2--|--0---0-0-0-0-0--0--0--|

-3----0--|-----------------------|--3----0--|-----------------------|

---------|-----------------------|----------|-----------------------|



-0-------|--2--2-2-2--|---0---|

-1----2--|--3--3-3-3--|---0---|

-0----2--|--2--2-2-2--|---0---|

-2----2--|--0--0-0-0--|---2---|

-3----0--|------------|---2---|

---------|------------|---0---|





Solo I –



Guitar I -

-12--------14------|--15--------17------|--8--------8--------|

-----12--------12--|------12--------12--|-----5--------5-----|

-------------------|--------------------|--------5--------5--|

-------------------|--------------------|--------------------|

-------------------|--------------------|--------------------|

-------------------|--------------------|--------------------|



Guitar II -

-15--------17------|--19--------20------|--12----------------|

-----17--------17--|------17--------17--|------13------------|

-------------------|--------------------|--------------------|

-------------------|--------------------|--------------------|

-------------------|--------------------|--------------------|

-------------------|--------------------|--------------------|



Guitar I -

-------8-----------|--0----------0------|--0----------0------|

----5-----5--------|-----1----------1---|-----3----------3---|

-5-----------5\\----|--------0-----------|--------2-----------|

-------------------|--------------------|--------------------|

-------------------|--------------------|--------------------|

-------------------|--------------------|--------------------|



Guitar II -

-------------------|--11/12-------------|--12/14-------------|

-------------------|---------13---------|----------15--------|

-------------------|-------------12-----|---------------14---|

-------------------|--------------------|--------------------|

-------------------|--------------------|--------------------|

-------------------|--------------------|--------------------|



Guitar I -

-0--7--------7--0--------|-----------0--|--12--------14------|

-------0-----------0-----|--------0-----|------12--------12--|

----------0-----------0--|-----0--------|--------------------|

-------------------------|--------------|--------------------|

-------------------------|--------------|--------------------|

-------------------------|--0-----------|--------------------|



Guitar II -

-----12------12----------|--------------|--15--------17------|

-12-------------12-------|--------------|------17--------17--|

-------------------------|--------------|--------------------|

-------------------------|--------------|--------------------|

-------------------------|--------------|--------------------|

-------------------------|--------------|--------------------|

Guitar I -

-15--------17------|--8--------8--------|--------8-----------|

-----12--------12--|-----5--------5-----|-----5-----5--------|

-------------------|--------5--------5--|--5-----------5\\----|

-------------------|--------------------|--------------------|

-------------------|--------------------|--------------------|

-------------------|--------------------|--------------------|



Guitar II -

-19--------20------|--12----------------|--------------------|

-----17--------17--|------13------------|--------------------|

-------------------|--------------------|--------------------|

-------------------|--------------------|--------------------|

-------------------|--------------------|--------------------|

-------------------|--------------------|--------------------|



Guitar -

-0-----------0-----|--0-----------0-----|--0-7--------7--0--------|

----1-----------1--|-----3-----------3--|-------0-----------0-----|

-------0-----------|--------2-----------|----------0-----------0--|

-------------------|--------------------|-------------------------|

-------------------|--------------------|-------------------------|

-------------------|--------------------|-------------------------|



Guitar II -

-11/12-------------|----------------------------|--------------------|

--------13---------|----------------------------|-----12-----12------|

------------12-----|-----12--12h14---12h14-14b--|--12----------------|

-------------------|----------------------------|----------------14--|

-------------------|----------------------------|--------------------|

-------------------|----------------------------|--------------------|



Guitar I -

-----------------0-----------------|------|

------------0---------0------------|------|

-------0---------------------------|------|

-----------------------------------|------|

-----------------------------------|------|

-0---------------------------------|------|



Guitar II -

-----------------------------------|------|

----15--15--15---------------------|------|

----14--14b-14r-12-------------12--|------|

--------------------14--12h14------|--14--|

-----------------------------------|------|

-----------------------------------|------|





Lead into solo -

----------------------------|

----------------------------|

----------------------------|

----------------------------|

-7--7----------2-2-2-2-2-2--|

-------0-0-0-0-0-0-0-0-0-0--|



Played Under Solo – (distorted)

----------------------|-------------------------------|

----------------------|-------------------------------|

------------9------9--|--7--------7--------5----------|

------------9------9--|--7--------7--------5----------|

--2---2/7---7------7--|--5--------5--------3----------|

--0-------------------|-------------------------3--2--|





Solo II – (distorted)

----------------------------------------------------------------------12--|

-15---------------------------------------------------------------12------|

-14b---14br-12---14-12----11h12p11------11---------12-14-12--14b----------|

------------------------------------14------12-14-------------------------|

--------------------------------------------------------------------------|

--------------------------------------------------------------------------|



----------12----------------------------------------------------14/15-----|

------12------15p12------12---------------------14--14--13----------------|

-14b-----------------15------15-14----12br------14--14--13--12\\-----------|

--------------------------------------------14----------------------------|

--------------------------------------------------------------------------|

--------------------------------------------------------------------------|



-14------15--14--15/17----15-14h15p14/12------15-14-----------------------|

-----12-----------------------------------12---------12--------------15---|

----------------------------------------------------------12-14-12---14b--|

--------------------------------------------------------------------------|

--------------------------------------------------------------------------|

--------------------------------------------------------------------------|



---------------------12--------------------|

-----------------12------15-15b-12----15b--|

-12------12-14b----------------------------|

-----14------------------------------------|

-------------------------------------------|

-------------------------------------------|



-------------------|--------------------|

-12h15p12/-----7\\--|--5h7p5-------------|

-------------------|--------------------|

-------------------|--------------------|

-------------------|--------------------|

-------------------|--------------------|





Ending – repeat and fade out . . . .

-0--------0--------|-----------0-----7--|--7--------7p0--------|

-------0-----0-----|--------0-----0-----|-----0----------0-----|

----0-----------0--|-----0--------------|--------0----------0--|

-------------------|--------------------|----------------------|

-------------------|--------------------|----------------------|

-0-----------------|--0-----------------|--0-------------------|



-------7--8--7h8p7/5--|--7--5/3--0--|

-------0--0-----------|--0----------|

----0-----------------|-------------|

----------------------|-------------|

----------------------|-------------|

-0--------------------|-------------|



----------0--------|-----------0--------|

-------0-----0-----|--------0-----0-----|

----0-----------0--|-----0-----------0--|

-------------------|--------------------|

-------------------|--------------------|

-0-----------------|--0-----------------|
Added by tabs-database.com and our distinguished partners

Related Metallica Tabs

Minus Human Bass tabs
Too Late Too Late tabs
Anesthesia (pulling Teeth) tabs
From Whom The Bell Tolls tabs
Blues Jam tabs
The Prince tabs
Dyers Eve,correct(rate) tabs
St. Anger Intro tabs
Thorn Within tabs
No Leaf Cover tabs
And Justice For All Full Album tabs
Where The Wild Things Are,corect(rate) tabs
Unforgiven Solo tabs
Am I Evil tabs
To Live Is To Die tabs
Call Of Kutulu tabs
Eye Of The Beholder,correct(rate) tabs
Leper Messiah Intro tabs
Shoot Me Again Bass tabs
And Justice For All2 tabs


Guitar Tabs




All tabs are property and copyright of their owners. All tabs provided for educational purposes only. Privacy Policy, DMCA, Links