Metallica

Nothin Else Matters Tabs



More from Metallica

Metallica Tabs
Metallica Chords
Metallica Bass
Metallica Lyrics




Eb-------0-----|-------0-----|-------0-----|-------0---7-|
Bb-----0---0---|-----0---0---|-----0---0---|-----0---0---|
Gb---0-------0-|---0-------0-|---0-------0-|---0---------|
Db-------------|-------------|-------------|-------------|
Ab-------------|-------------|-------------|-------------|
Eb-0-----------|-0-----------|-0-----------|-0-----------|

Eb-7-----------7^0---------|---------7---8---7^8\5---7-5-/0------|
Bb---------0-------0-------|---------0---0-----------0-------5---|
Gb-----0---------------0---|-----0-------------------------------|
Db-------------------------|-------------------------------------|
Ab-------------------------|-------------------------------------|
Eb-0-----------------------|-0-----------------------------------|
P
Eb-------------2^0---------|-------------0---0---0---|
Bb-5-------5-------5-------|---------5-------5---5---|
Gb-----5---------------5---|-----5-----------5---5---|
Db-------------------------|-------------------------|
Ab-0-----------------------|-0---------------0---2---|
Eb-------------------------|-------------------------|

Eb-0-----------3^0-----0---|-0----------0^5^0---------|
Bb-5-------5-------5---5---|-7---7-5-7--------7^0-5^0-|
Gb-5-----5---5-------5-5---|-7------------------------|
Db-------------------------|--------------------------|
Ab-3---3---------------3---|-5------------------------|
Eb-------------------------|--------------------------|

Eb-------12----|-------0-----|-------0-----|-------0-----|
Bb-----12--0---|-----0---0---|-----0---0---|-----0---0---|
Gb---12------0-|---0-------0-|---0-------0-|---0-------0-|
Db-------------|-------------|-------------|-------------|
Ab-------------|-------------|-------------|-------------|
Eb-0-----------|-0-----------|-0-----------|-0-----------|

Eb-------------7---7-------|-------------|-------------7-----------|
Bb-------------8---8-------|-----7-----5-|-------------8-----------|
Gb-----------9-----9-------|-----7-----5-|-----------9-------------|
Db---------9---------------|---7-----5---|---------9---------------|
Ab-------7-----------------|-5-----3-----|-------7-----------------|
Eb-0-----------------------|-------------|-0-----------------------|

Eb-------------|----------7-----7--------|-----5-----------3-------|
Bb-----7-----5-|----------------8--------|-------7-----------5-----|
Gb-----7-----5-|-------------9-----------|---------7-----------5---|
Db---7-----5---|-------------------------|-------------------------|
Ab-5-----3-----|-------7-----------------|-5-----------3-----------|
Eb-------------|-0-----------------------|-------------------------|

Eb-----3-------------------|-------0-----(0------)|-------0-----|
Bb-------3---------5-4-----|-----0---0---(-0-----)|-----0---0---|
Gb---------4---------------|---0-------0-(--0----)|---0-------0-|
Db-------------------------|-------------(---2---)|-------------|
Ab-------------2-----------|-------------(----2--)|-------------|
Eb-3-----------------------|-0-----------(-----0-)|-0-----------|



Eb-------------3----0---|-2---2-2-2-3--0--0-0-----|
Bb---------0----------0-|-3---3-3-3-3--3--3-3-----|
Gb-----0----------0-----|-2---2-2-2-2--0--0-0-----| repeat 2X
Db----------------------|-0---0-0-0-0--2--2-2-----|
Ab----------------------|--------------3--3-3-----|
Eb-0--------------------|---------------------3-2-|


Eb-------------3----0---|-2---2-2-2-3--0--0-0-----------3--2------2----
Bb---------0----------0-|-3---3-3-3-3--3--3-3-----------3--0--------0--
Gb-----0----------0-----|-2---2-2-2-2--0--0-0---------0----2-----------
Db----------------------|-0---0-0-0-0--2--2-2--------------1----1------
Ab----------------------|--------------3--3-3--------------2--2--------
Eb-0--------------------|---------------------0-2-3--------------------


Eb-0-----0-----|-2-----2-2-2-3---2--0--2-|
Bb-1-----2-----|-3-----3-3-3-3---3--3--3-|
Gb-0-----2-----|-2-----2-2-2-2---2--2--2-|
Db-2-----2-----|-0-----0-0-0-0---0--0--0-|
Ab-3-----0-----|-------------------------|
Eb-------------|-------------------------|

Eb-0-----0-----|-2-----2-2-2-3---2--0--2-|
Bb-1-----2-----|-3-----3-3-3-3---3--3--3-|
Gb-0-----2-----|-2-----2-2-2-2---2--2--2-|
Db-2-----2-----|-0-----0-0-0-0---0--0--0-|
Ab-3-----0-----|-------------------------|
Eb-------------|-------------------------|

Eb-0-----0-----|-2-----2-2-2-0-----------|
Bb-1-----2-----|-3-----3-3-3-0-----------|
Gb-0-----2-----|-2-----2-2-2-0-----------|
Db-2-----2-----|-0-----0-0-0-2-----------|
Ab-3-----0-----|-------------2-----------|
Eb-------------|-------------0-----------|

|-12------14---|-15-------17---|-8------8------|-------8--------|
|---12------12-|---12-------12-|---5------5----|----5-----5-----|
|--------------|---------------|-----5------5--|-5----------5\--|
|--------------|---------------|---------------|----------------|
|--------------|---------------|--------------0|----------------|
|--------------|---------------|---------------|----------------|

|-0--------0---|-0^2--------0--|-0--0~~~~0~~~~~|--------0-------|
|----1-------1-|-----3-------3-|-12-12~~~12~~~~|------0---0-----|
|-------2------|--------2------|---------------|----0-------0---|
|--------------|---------------|---------------|----------------|
|--------------|---------------|---------------|----------------|
|--------------|---------------|---------------|-0--------------|

|-12------14---|-15-------17---|-8------8------|-8-----8--------|
|---12------12-|---12-------12-|---5--------5--|---5-----5------|
|--------------|---------------|-----5----5---5|-----5-----5----|
|--------------|---------------|---------------|----------------|
|--------------|---------------|---------------|----------------|
|--------------|---------------|---------------|----------------|

|-0--------0---|-0^2--------0--|-0--0~~~~0~~~~~|--------0---------|
|----1-------1-|-----3-------3-|-12-12~~~12~~~~|------0---0-------|
|-------2------|--------2------|---------------|----0-------0-----|
|--------------|---------------|---------------|------------------|
|--------------|---------------|---------------|------------------|
|--------------|---------------|---------------|-0------------3-2-|


Eb|--------3-----3--5--5(7)5--5-----3--5---10--7--6(8)6--
Bb|--3--5-----5------------------5-----------------------

Eb|--10--6(8)6---10--6(8)6---10--6(8)6---10--6(8)6---3-0-


B B R V V
Eb---------------------------|-------------------------------------|
Bb-15------15----------------|-------------------------------------|
Gb-14(16)--14(16)14-12--14-12|-11-12-11----11-------------12-14-12-|
Db---------------------------|----------14----12-14----------------|
Ab---------------------------|-------------------------------------|
Eb---------------------------|-------------------------------------|
B B B
Eb-------12-------12---------------------------hold bend-->--------|
Gb----12-------12----15^14^12-(approx.8x )--15(17)-15-15-15--------|
Gb-14(16)---14(16)---------------------|---------------------------|
Db-------------------------------------|---------------------------|
Ab-------------------------------------|---------------------------|
Eb-------------------------------------|---------------------------|

Eb-15(17)--15---14-15-|----15-14----14-15-14-12|--------------------
Bb--------------------|-12-------12------------|-15-14-12-----------
Gb--------------------|------------------------|-----------12-14-12-
Db--------------------|------------------------|--------------------
Ab--------------------|------------------------|--------------------
Eb--------------------|------------------------|--------------------

Eb-------------------------|-12--------------------hold----->-----release
Bb----------------------12-|-------12-15(17)15--12^15(17)-15-15-15-15-15-
Gb-14(16)14-12----12-14(16)|-------------------------------|-------------
Db-------------14----------|-------------------------------|-------------
Ab-------------------------|-------------------------------|-------------
Eb-------------------------|-------------------------------|-------------

Eb-----------------------------------
Bb-12^15^12~~~~~~\\\\\\7--5^7^5~~~~~~
Gb-----------------------------------
Db-----------------------------------
Ab-----------------------------------
Eb-----------------------------------


E-------0-----|-------0---7-|-7-----------7^0---------|
B-----0---0---|-----0---0---|---------0-------0-------|
G---0-------0-|---0---------|-----0---------------0---|
D-------------|-------------|-------------------------|
A-------------|-------------|-------------------------|
E-0-----------|-0-----------|-0-----------------------|

E---------7---8---7^8\5---7-5-/0--0--0-|
B---------0---0-----------0------------|
G-----0--------------------------------| repeat
D--------------------------------------|
A--------------------------------------|
E-0----------------------------------0-|


best soft song ever



Listen to this song at Rdio  
Get this song at amazon.com     Ringtones Ringtones  eMusic  

Learn to play: Songwriting, Piano, Harmonica, Guitar

Related Metallica Tabs

Kirk And Guitars tabs
Call Of Ktulu tabs
Come Kingdom Lie tabs
53rd&3rd tabs
Its Electric tabs
Anestheia tabs
Holier Than Thou tabs
Breadfan Bass tabs
Saint Anger tabs
For Whom The Bell Tolls2 tabs
Tread On Me tabs
Minus Human Bass tabs
Seek And Destroy tabs
Mercyful Fate tabs
Damage Inc tabs
Orion(instrumental) tabs
King Nothing tabs
And Justice For All tabs
Whiskey In Tha Jar tabs
Wait tabs


Guitar Tabs




All tabs are property and copyright of their owners. All tabs provided for educational purposes only. Privacy Policy, DMCA, Muzikum