Metallica

Moby Dick Tabs



More from Metallica

Metallica Tabs
Metallica Chords
Metallica Bass
Metallica Lyrics

Moby Dick
written by Led Zeppelin
as performed live by Metallica
tab by John Flaherty; Blind2345@aol.com


 Led Zeppelin "Moby Dick"              repeat a lot, then..                   

------------------------------------------------------------------------------
------------------------------------------------------------------------------
------------------------------------------------------------------------------
-----------------------------------------------------------7-7-0-5-5-0-3-5-0--
----7-7-5-7------------7-7-5-7---------------------------0--------------------
--0---------3-5-3-5--0---------3-5-3-5----------------------------------------
                                                                              

------------------------------------------------------------------------------
------------------------------------------------------------------------------
------------------------------------------------------------------------------
-3-5-7-5-0-3-5-7-5-3-0--------------------------------------------------------
------------------------------------------------------------------------------
------------------------------------------------------------------------------

Related Metallica Tabs

Whiskey In The Jar tabs
Wait tabs
Live Shit Riffs tabs
Four Horsemen tabs
Anestheia Correct (rate) tabs
Harvester Of Sorrow tabs
Stone Dead Forever tabs
Small Hours tabs
Am I Evil 3 tabs
Live Shit Riffs Album tabs
Enter Sandman Whole Song tabs
Motor Breath tabs
Blitzkrieg tabs
Trapped Under Ice Solo tabs
The Devils Dance tabs
... & Justice For All tabs
Nothing Else Matters Intro tabs
Leper Messiah Intro tabs
Damage Inc,correct(rate) tabs
Sad But True tabs


Guitar Tabs




All tabs are property and copyright of their owners. All tabs provided for educational purposes only. Privacy Policy, DMCA, Links