Metallica

Metallica Medley Tabs



More from Metallica

Metallica Tabs
Metallica Chords
Metallica Bass
Metallica Lyrics



hope this is right i don't play guitar i play all the bass party to this iam a bass player
butt i try to play
guitar and tabs this out for the sum 41 metallica fans

THSI IS THE intro to the show where sum 41 kicks the fu__k out of metallica song


This was played by SUM 41 at MTV Icon Metallica
(Nasty Performance)

Guitar 1: (Deryck Whibley)
Guitar 2: (Dave Brownsound)

(): Let Note Ring
/: Slide Up

Gtr. 1 plays this
e------------------
B------------------
G------------------
D-4-4-4-4--(2)-----
A-4-4-4-4--(2)-----
E-2-2-2-2--(0)-----

Guitar 2 follows up with:

e--------------------
B--------------------
G-7-6-5-4------7-----
D----------5-4-------
A----------------5-4-
E--------------------
(Repeat 4x)

Then Play: (This is all Palm Muted)
e----------------------------------------
B----------------------------------------
G--------------------------------2-------
D-2-5-4-3-2-5-4-3-2-5-4-3-2-4-5--2-------
A-2-5-4-3-2-5-4-3-2-5-4-3-2-4-5--0-------
E-0-3-2-1-0-3-2-1-0-3-2-1-0-2-3----------
(Repeat 4x)

Verse:
e----------------------------------------|
B----------------------------------------|
G----------------------------------------|
D-(2)---------------(5)------5-----------|
A-(2)---------------(5)------5-----------|
E-(0)---------------(3)------3-----------|

e----------------------------------------|
B----------------------------------------|
G----------------------------------------|
D-(2)---------------(5)-----(10)-----(7)-|
A-(2)---------------(5)-----(10)-----(7)-|
E-(0)---------------(3)------(8)-----(5)-|
(Repeat 2x)

Then The Chorus:
(Palm Mute all Open E String notes)
e----------------------------------------
B----------------------------------------
G------------------------------3---------
D-------5--------7--------5----3---4-----
A-------5--------7--------5----1---4-----
E-0-0-0-3--0-0-0-5--0-0-0-3--------2-----

e----------------------------------------
B----------------------------------------
G-------------------------------3--------
D-------5--------7--------5-----3--4--3--
A-------5--------7--------5-----1--4--3--
E-0-0-0-3--0-0-0-5--0-0-0-3-0-0----2--1--
(Repeat 2x)

e-----
B-----
G-----
D-----
A-----
E-(0)-

Then:
Gtr. 1 (No Distortion)
e------------------------
B------------------------
G------------------------
D-----5------------------
A---7-------7------------
E-0-----6-5--------------
(Play 8x)

Gtr. 2 (1:40)
e-0--
B-0--
G-0--
D-2--
A----
E----
Then Both Gtrs. play:
e-----------------------------
B-----------------------------
G-----------------------------
D-2---------------------------
A-2---------------5/7---------
E-0-0-0-0-0-0-0---------------
PM. . . . . . .
(Repeat 4x)
e-----------------------------
B-----------------------------
G-----------------------------
D-2---------------------------
A-2---------------5/7---------
E-0-0-0-0-0-0-0-------6-------
PM. . . . . . .
(Repeat 4x)

Sum!
e---------------------------------
B---------------------------------
G---------------------------------
D-2-2-----------5-----5-----4-5-4-
A-2-2--7--------5-----5-----4-5-4-
E-0-0-----6-5---3--0--3--0--2-3-2-
(Repeat 12x)

Gtr. 1 plays rhythm while Gtr. 2 plays the solo.

Gtr 1.
e------------------------------
B------------------------------
G------------------------------
D-2----------------------------
A-2--------------6/7-87-5/7---
E-0-0-0-0-0-0-0--4/5-65-3/5---
PM. . . . . . .
e------------------------
B------------------------
G------------------------
D-2----------------------
A-2--------------6/7-6/7-
E-0-0-0-0-0-0-0--4/5-4/5-
PM. . . . . . .
(Repeat 4x)

Then Gtr 1. Moves Up to:
e---------------------------------
B---------------------------------
G---------------------------------
D-4-------------------------------
A-4--------------8/9-10/9-7/9-----
E-2-2-2-2-2-2-2--6/7--8/7-5/7-----

e------------------------
B------------------------
G------------------------
D-4----------------------
A-4--------------8/9-8/9-
E-2-2-2-2-2-2-2--6/7-6/7-

Gtr 2. plays this insane solo:
e-17p12----------12-17p12----------12-17p12----------12-15p12----------12--
B-------13-12-13----------13-12-13----------13-12-13----------13-12-13-----
G--------------------------------------------------------------------------
D--------------------------------------------------------------------------
A--------------------------------------------------------------------------
E--------------------------------------------------------------------------

-17p12----------12-17p12----------12-17p12-------12-12-15p12----
-------13-13-12----------13-12-13----------13-12-------------13-
----------------------------------------------------------------
----------------------------------------------------------------
----------------------------------------------------------------
----------------------------------------------------------------

-----19-19-17-17-17-17-15-15-15-14-14-14-14-17-17-17-15-15-15-14--
-/17--------------------------------------------------------------
------------------------------------------------------------------
------------------------------------------------------------------
------------------------------------------------------------------
------------------------------------------------------------------

-14-14-14-14---------------------------------17h19------------------
-------------15---15-17-17---------17p15p14--------17p15p14---------
-------------------------------------------------------------16-14--
--------------------------------------------------------------------
--------------------------------------------------------------------
--------------------------------------------------------------------

---------------------------------------------------------------------
------------------------------------/15--13--12------13--12------12--
-2--4--3--2-0h2----------------------------------14----------14------
-----------------4--2-----2-h4---------------------------------------
----------------------(2)--------------------------------------------
---------------------------------------------------------------------

-----------------------------------------------------------
-------------12----12-12-12-12-12-12-15-13-12-15-13-12-13--
-11--12--14------------------------------------------------
-----------------------------------------------------------
-----------------------------------------------------------
-----------------------------------------------------------

-12----------12-------------14-------14-------15-15--------
----15-15-13----15-13h15-15----17-15----15-17-------17/19--
-----------------------------------------------------------
-----------------------------------------------------------
-----------------------------------------------------------
-----------------------------------------------------------

-17-------19-17-------17----------19-17-------17----------19-17--------
----20-19-------19-19----21-19-19-------19-19----21-19-19-------19-19--
-----------------------------------------------------------------------
-----------------------------------------------------------------------
-----------------------------------------------------------------------
-----------------------------------------------------------------------

-17-------------19-17-------------14--14------14------------14--
----21b-19b-19b-------19b-19b?17b--------17b------17b-17b-------
----------------------------------------------------------------
----------------------------------------------------------------
----------------------------------------------------------------
----------------------------------------------------------------

-19-p14------19-p14--14----------14------14------14-14-14------14-14--
---------17b---------17b-----17b-----17b-----17b-----------17b--------
----------------------------------------------------------------------
----------------------------------------------------------------------
----------------------------------------------------------------------
----------------------------------------------------------------------

-----15b-----15b-----15b-----15b-----17b-----17b-----18b-----18b--
-18b-----18b-----18b-----18b-----20b-----20b-----21b-----21b------
------------------------------------------------------------------
------------------------------------------------------------------
------------------------------------------------------------------
------------------------------------------------------------------

-----19b-----19b-22b--(22)---------------------
-22b-----22b-----------------------------------
-----------------------------------------------
-----------------------------------------------
-----------------------------------------------
-----------------------------------------------

After the solo Both Gtrs. play this:
e-----------------------------------------------------------------------
B-----------------------------------------------------------------------
G-9--------7--9----------------------------------------------------8----
D-9--------7--9-----9--------------10-10-10-10-10-9-10-10-10-10-10-8-9--
A-7--------5--7---7---9h10---------10-10-10-10-10-9-10-10-10-10-10-6-9--
E-0--0-0----------------------------8--8--8--8--8-7--8--8--8--8--8---7--
PM . . . . . . . . . .
(Repeat 4x)

End with
e-----------------------
B-----------------------
G-----------------------
D-7-7/6-4---------------
A-9-9/8-6-7-6-5---------
E---------8-7-6---------

"Master, Master!"
e------------------
B------------------
G------------------
D-2-2-3-3----------
A-2-2-3-3----------
E-0-0-1-1----------


|------------------------------------------------------------------|
|------------------------------------------------------------------|
|------------------------------------------------------------------|
|----------------------12--11--10----------------------------------| x4
|----------------------12--11--10----------------------------------|
|-0-0-12-0-0-11-0-0----10--9---8----0-0-7-0-0-6-0-0-5-0-4-0-3-0-2--|
................. .............................

|--------------------------------------------------------------------|
|--------------------------------------------------------------------|
|--------------------------------------------------------------------|
|--------------------------------------------------------------------| x2
|-----2-----3-----4-----3-----2-2-----2-----3------54---54---54---|
|-0-1---0-1---0-1---0-1---0-1-----0-1---0-1---0-0--32-0-32-0-32---|
...............................................

|--------------------------------------------------------------------|
|--------------------------------------------------------------------|
|-------------------------------------------------------------4------|
|-------------------------------------------------------------4------|
|-----2-----3-----4-----3-----2-2-----2-----3-----4-----3-----2------|
|-0-1---0-1---0-1---0-1---0-1-----0-1---0-1---0-1---0-1---0-1--------| |
........................................................... | x2
|--------------------------------------------------------------------| |
|--------------------------------------------------------------------| /
|--------------------------------------------------------------------|
|--------------------------------------------------------------------|
|-----2-----3-----4-----3-----2-2-----2-----3------54---54---54---|
|-0-1---0-1---0-1---0-1---0-1-----0-1---0-1---0-0--32-0-32-0-32---|
...............................................

|-17-12------------12-17-12------------12-17-12------------12--|
b|--------13-12-13------------13-12-13------------13-12-13------|
g|--------------------------------------------------------------|
D|--------------------------------------------------------------|
A|--------------------------------------------------------------|
E|--------------------------------------------------------------|


e|-15-12------------12-17-12------------12-17-12------------12--|
b|--------13-12-13------------13-12-13------------13-12-13------|
g|--------------------------------------------------------------|
D|--------------------------------------------------------------|
A|--------------------------------------------------------------|
E|--------------------------------------------------------------|


e|-17-12---------12-12-15-12-----------19-19-17-17-17-17-15-15-15-15--|
b|--------13-12---------------13--/17---------------------------------|
g|--------------------------------------------------------------------|
D|--------------------------------------------------------------------|
A|--------------------------------------------------------------------|
E|--------------------------------------------------------------------|


e|-14-14-14-14-17-17-17-17-15-15-15-15-14-14----------------------------|
b|--------------------------------------------15--15-17-17b19r17b19r17--|
g|----------------------------------------------------------------------|
D|----------------------------------------------------------------------|
A|----------------------------------------------------------------------|
E|----------------------------------------------------------------------|

(whammy bar)
e|-----------17p15p14--------------------------------///--|
b|-17p15p14------------17p15p14---------------------/-------|
g|--------------------------------16-14~~------/--------|
D|---------------------------------------------//---------|
A|----------------------------------------------------------|
E|----------------------------------------------------------|


e|-----------------------------------|
b|-----------------------------------|
g|-2-4-(2)h4-4-3-2-------------------|
D|------------------4-2-----(2)h4~~--|
A|-----------------------2-----------|
E|-----------------------------------|


e|-10-8-7------8-7---------------7~--|
b|---------10-------10-8-7-8-10------|
g|-----------------------------------|
D|-----------------------------------|
A|-----------------------------------|
E|-----------------------------------|


e|-7-7-7-7-7-7--10-8-7-10-8-7--12-10-8-12-10-8--14-12-10-14-10-12--|
They finally End With This:
--------------------------------------------
--------------------------------------------
--------------------------------------------
-----------------------------2-2-2-2-2-2--3-
-5/4---5/4---5/4---5/4---5/4-2-2-2-2-2-2--3-
-3/2-0-3/2-0-3/2-0-3/2-0-3/2-0-0-0-0-0-0--1-


Related Metallica Tabs

Live Riffs tabs
Dyers Eve,correct(rate) tabs
Ronnie tabs
-human tabs
Coors Light Beer Song tabs
Highway Star tabs
Untill It Sleeps tabs
Sad But True Guitar Tab tabs
No Leaf Cover tabs
Until It Sleeps Acoustic tabs
I Am Evil tabs
Hollier Than Thou tabs
Dazed And Confused tabs
Aint My Bitch tabs
My Friend Of Misery (solo) tabs
Cretin Hop tabs
Dead Mans March Before Fuel On Sampm tabs
Sad But True tabs
N E M tabs
St Anger Album tabs


Guitar Tabs




All tabs are property and copyright of their owners. All tabs provided for educational purposes only. Privacy Policy, DMCA, Links