Metallica

Master Of Puppets (entire Record!!!!) Bass Tabs



More from Metallica

Metallica Tabs
Metallica Chords
Metallica Bass
Metallica Lyrics




Metallica
Master of puppets

Battery

tempo=75

Intro
|--------------------||----------------|---------------|----------------|
|--4/4-------12------||:---------------|---------------|----------------|
|------|---pause---|-||----------------|---------------|----------------|
|--------------------||0---0-0-1-------|2---2-2-3------|0---0-0-1-------|

|----------------------||----------------||
|---------------------:||----------------||
|----------------------||----2-----------||
|2---2-2-3---3--3--1-0-||0-------3---2---||

tempo=190

||------------|-----------------|-------------|-------|------|--------------||
||------------|-------3---------|-------------|-------|------|--------------||
||------------|--|---pause---|--|-------------|-------|------|--------------||
||0-----------|-----------------|0-------6-6-5|0------|------|6-5--5---5---5||

-----------------|
|1
||----------------|---------------|---------------|----------------||
||:---------------|----------5-5-4|5--------------|---------------:||
||----------------|---------------|---------------|----------------||
||-0-000-000-6-6-5|0-000-000------|--000-000-6-6-5|0-2---3-0-3--4--||

-----------------
|2
|-------------|-----------------|---------------|--------------||
|-------------|-----------------|----5-5-----5-5|----7-7-------||
|-------------|-----7-7------7-7|---------------|------------6-||
|6--5--5--5--5|0--------0--00---|3-------3-33---|5-5-----1-0---||

1st,2nd,3rd Verses
X2
||-----------------|--------------|---------------|------------|
||:----------------|-----------554|5--------------|------------|
||-7----7----7-----|7----7----7---|-----7----7----|------------|
||----00---0---66-5|---00---00----|---00---00--665|0--2---303-4|

|---------------|-------------|------------|------------------|
|---------------|----5------55|-----7-7----|------------------|
|------7------77|-------------|---------776|7----7----7-------|
|0----------00--|3-3---22333--|5-5---------|--0-0--0-0---6-6-5|

|--------------|---------------|--------------|--------------|
|-----------554|5--------------|--------------|--------------|
|-7----7---7---|----7---7------|--------------|----7-------7-|
|----00--00----|--00--00--6-6-5|0--2--3-0-3--4|0--------000--|

|---------------|--------------|-------------|------------|
|-----5-5-----55|--------------|5------------|---------554|
|---------------|--------7-7-6-|---7--7------|7----7--7---|
|3--------3-33--|5-5-5-5-------|-00-00--6-6-5|---00-00----|

|----------|-----------|--------------|----------------|
|---------5|-----------|--------------|-----------5-5-4|
|---7------|---2------6|7----7--7-----|-----7---7------|
|0-----7---|3------0---|---00-00-6-6-5|0--00--00-------|

|------------------|-------------|-----------|-----------| 3rd time to Coda
|5--------------8--|-------------|--------554|5----------|
|---7--7----------8|7---7--7-----|7---7--7---|---7--7----|
|-00-00--6-6-5-----|--00-00-6-6-5|--00-00----|-00-00--665|

-------------------------------------------|-------------|
|1 |2
|-------------|------------|------------|---------------||-------------||
|-------------|------------|-----5-----5|--------------:||-------------||
|1------------|----7-----7-|------------|-------------6-||-------------||
|----1---0----|0-0---0-0---|3-3----3-3--|5-55-5-5-3-0---||0------------||

Interlude
|--------------|--------------|---------------|--------------|
|--------------|--------------|--------5------|5-----5-------|
|-------7------|-------7---7--|---------------|------------2-|
|0--0-0---0---0|0--0-0---0---0|3---3-3---3-3-3|--3-----0-0---|

|---------------|---------------|---------------|----------4||
|---------------|---------------|--------5------|---------5-||
|-------7----7--|--------7---7--|---------------|-----------||
|0--0-0---0---0-|0-----0---0---0|3---3-3---3-3-3|3------3---||
X3
||------------------|---------------|--------------|----------------||
||:-----------------|---------------|--------------|--4-5-7-8-8-9--:||
||---------7-----7--|----7-7--------|-------------7|7---------------||
||-0---0-0---0-0---0|0-0-----8-8-7-7|3---3-3-3-0---|----------------||
P

|--------------|------------|--------|--------|-------------||
|--------------|------------|--------|--------|-------------||
|-------7-----7|----------3-|--------|--------|-------------||
|0--0-0---0-0--|0-----3-----|3-------|(3)-----|6--5--5--5--5||

Guitar Solo
||-------------------|------------------|----------------|----------------|
||:------------------|------------------|----------------|----------------|
||-7-----7----7------|------------------|7----7---7------|----------------|
||---0-0--0-0---6-6-5|0--6-6-5--0--6-5-5|--0-0-0-0--6-6-5|0--6-6-5-0-3-3-1|

|-------------------|------------------|--------------------|--------------||
|-------------------|------------------|--------------------|-------------:||
|7-----7-----7------|------------------|7------7-----7------|--------------||
|--0-0---0-0---6-6-5|0--6-6-5--0--6-6-5|---0-0---0-0---6-6-5|6--5--5--5--5-||

|--------------|-----------------|--------------|----------------|
|--------------|----5-5-------5-5|--------------|----4---------4-|
|---7-------7--|-----------------|--------------|----------------|
|0-----0-00---0|3-3--------33----|5---5-5-5-005-|2-2-------2-2---|

|--------------|----------------|----------------|----------------||
|--------------|----5-5------5-5|----------------|----------------||
|---7-------7-7|----------------|----------------|----------------||
|0----0-0-00---|3-3-------33----|5---------------|--------------2-||

X4 D.S. al Coda
||-----------------|---------------||-------------|----------------||
||:----------------|--------------:||-------------|----------------||
||-----------------|---------------||-------------|--------------6-||
||-1(0)6(0)7(0)6(0)|7(0)6(0)7(0)2--||1------------|----------1-1---||

Coda
|------| |-------------|----------------| |----------------| |-------------|
2/4|------|4/4|-------------|-----------5-5-4|5/4|----------------|4/4|-------------|
|1-----| |7---7---7----|7----7---7------| |7---7---7----1--| |7---7---7----|
|----1-| |-00--00---665|--00--00--------| |--00--00-665---1| |--00--00--655|
Bat-ter- -y!
X7
|---------------|----------------|--------||---------------|----------------||
|----------5-5-4|5---------------|--------||:--------------|---------------:||
|7---7---7------|----7---7-------|1-------||---------------|----------------||
|--00--00-------|--00--00---6-6-5|--1-0---||-1-6(0)7(0)6(0)|7(0)6(0)7(0)-2--||

|--------------|-----------|-------------|------------|---------||
|--------------|-----------|-------------|------------|---------||
|--------------|-----------|-------------|------------|---------||
|1-6(0)7(0)6(0)|7----------|(7)----------|2-2--1--1--1|0--------||

master of puppets

Intro
4/4
|----------|------------|-------------|------------|----------|--------|---------|
|----------|------------|-------------|------------|----------|--------|---------|
|----------|5---4---3---|(3)----------|------------|----------|--------|---------|
|0---------|------------|-------------|0-----------|----------|--------|-------1-|

||-------|------------|--------|---------||--------|------------|---------------|---------------|
||:------|------------|--------|--------:||--------|------------|---------------|---------------|
||-------|5---4---3---|--------|---------||--------|5---4---3---|---3-3-3-3-3-3-|3-3-3-3-3-3-3-3|
||-0-----|------------|--------|------1--||0-------|------------|---------------|---------------|

|----------------||----------|----------|----------|-----------------||
|----------------||:---------|----------|----------|----------------:||
|3-3-3-3-3-3-3-3-||----------|----------|----------|-----------------||
|----------------||-0--------|----------|----------|32-0-32-0-32--||
S S S

||-----------------|----------------|----------------|----------------|
||:----------------|----------------|----------------|----------------|
||-----2-----3-----|4-----3-----2-2-|----2-----3-----|4-----3-----2---|
||-0-1---0-1---0-1-|--0-1---0-1-----|0-1---0-1---0-1-|--0-1---0-1-----|

|-----------------|----------------|----------------|-----------------||
|-----------------|----------------|----------------|----------------:||
|-----2-----3-----|4-----3-----2-2-|----2-----3-----|-----------------||
|-0-1---0-1---0-1-|--0-1---0-1-----|0-1---0-1---0-1-|32-0-32-0-32--||
S S S

|-----------------|----------------|------------------||
|-----------------|----------------|------------------||
|-----------------|----------------|------------------||
|32-0-32-0-32--|0---------------|---------------8-||

Bass riff1 5/8
||-----------------|----------------|----------------|-----------||
||:----------------|----------------|----------------|----------:||
||-----------------|----------------|----------------|-----------||
||-0-0-0-0-0-0-0-0-|0-3-5-0-65-3-5-|0-0-0-0-0-0-0-0-|0-3/5-3/5--||
end of riff1
H S H

1st, 2nd, 3rd Verses
Bass riff1 X4

Bass riff2 X2 5/8
|----------------|----------------|----------------|----------|
|----------------|----------------|----------------|----------|
|----------------|----------------|----------------|----------|
|2-2-2-2-2-2-2-2-|2-5/7---87-5/7-|2-2-2-2-2-2-2-2-|2-5/7-5/7-|
end of riff2

Pre-chorus
|----------------||----------------|---------------|----------------|----------------|
|----------------||----------------|---------------|----------------|--------1-------|
|----------------||7-------5---7---|---------------|3-3-3-3-3---2---|3-3-3-3-----2---|
|7-7-7-7-7-7-7-7-||--0-0-0---------|0------2-3-----|----------------|----------------|

------------------ --------------
|1.2. | |3.
||-----------------|---------------|----------------|-----------------||--------------|
||:----------------|---------------|----------------|--------1-------:||4-2-1---1-----|
||-7-------5---7---|---------------|3-3-3-3-3---2---|3-3-3-3-----2----||----------3-2-|
||---0-0-0---------|0------2-3-----|----------------|-----------------||--------------|

Chorus 2/4 4/4
|----------------|----------------||----------------|--------|----------------|-----------------|
|----------------|----------------||----------------|--------|----------------|-----------------|
|----------------|----------------||----------------|--------|----------------|-----------------|
|0---0-----------|1---1-----------||0-----------0-0-|2-0-0-0-|3---3-3---3-3---|3-3-3-3-3-3-333--|
P
2/4 4/4 2/4
|----------------|--------|----------------|----------------|-----------------|--------|
|----------------|--------|----------------|----------------|-----------------|--------|
|3---2-3-3-0-0-0-|2-0-0-0-|0---0-0---0-0---|(0)-------------|5----------------|5-------|
|----------------|--------|----------------|----------------|-----------3-3-3-|----0-0-|

4/4 2/4 4/4 2/4
|----------------|--------|----------------|----------------|-----------------|--------|
|----------------|--------|----------------|----------------|-----------------|--------|
|3---3-3---3-3---|3-3-3---|----------------|----------------|-----------------|--------|
|----------------|--------|0---0-----------|1---1-----------|0----------0-0-0-|2-0-0-0-|
P

4/4 2nd time to Coda1
|----------------|----------------|----------------|----------------||3rd time to Coda2
|----------------|----------------|----------------|----------------||
|3---3-3---3-3---|3-3-2-2-0-0-----|----------------|----------------||
|----------------|------------3-3-|0---0-----------|1---1-----------||

----------------- ------------------
|1. | |2.
||-----------------|----------------|----------------|-----------------||-----------------|
||:----------------|----------------|----------------|----------------:||-----------------|
||-----2-----3-----|4-----3-----2-2-|----2-----3-----|4-----3-----2----||-----------------|
||-0-1---0-1---0-1-|--0-1---0-1-----|0-1---0-1---0-1-|--0-1---0-1------||32-0-32-0-32--|
S S S
D.S al Coda1 Coda1
|-----------------| |----------------|----------------||
|-----------------| |----------------|----------------||
|-----------------| |----------------|----------------||
|32-0-32-0-32--| |----------------|----------------||
S S S

Interlude
2/4 4/4 2/4 4/4 2/4
|--------|-----------|--------||--------|---------------|---------------|----------------|------|
|--------|--3 pause--|--------||--------|---------------|---------------|----------------|------|
|--------|-----------|--------||7-------|5--------------|3--------------|0-------2-------|6-----|
|--------|-----------|--------||--------|---------------|---------------|----------------|------|

Interlude riff1
4/4 2/4
||---------|----------------|----------------|----------------|---------||
||:--9-9---|----------------|----------------|----------------|--------:||
||-7-----7-|5-----5-5-5---5-|3-3---333-3-0-3-|0-----0-2-220-2-|66660-6--||End of Interlude riff1
||---------|------------5---|----------------|----------------|---------||

Guitar solo1
4/4 2/4
||---------|----------------|----------------|----------------|---------||
||:--9-----|----------------|----------------|----------------|--------:||
||-7---7-7-|5-----555-5-7-5-|3-3-----3-3-0-3-|0-----0-2-220-2-|66660-6--||
||---------|----------------|------33--------|----------------|---------||

Interlude riff1 X2

4/4 2/4
||---------|----------------|----------------|----------------|---------||
||:--------|----------------|----------------|----------------|--------:||
||---------|----------------|----------------|----------------|6-6-6-6--||
||-0-0-0-0-|2-2-2-2-2-2-2-2-|3-3-3-3-3-3-3-3-|5-5-5-5-7-7-7-7-|---------||

4/4 X6
||----------------|----------------||-----------------|-----------------||
||----------------|----------------||:----------------|----------------:||
||----------------|----------------||---------------44|--------------4--||
||0-0-0-0-0-0-0-0-|0-0-0-0-0-0-0-0-||-2-2-3-2-2-2-3---|2-2-3-2-2-2-3----||

||----------------|-----------------|----------------|----------------||
||----------------|-----------------|----------------|5-4-2-2-0-------||
||----------------|-----------------|----------------|----------4-2-0-||
||3---3---3-3-3-3-|(3)3-3---3-3-3---|2---2---2-2-2---|----------------||

Guitar solo2
Bass riff1 X4
Bass riff2 X2

|----------------||-----------------|----------------|----------------|-----------------||
|----------------||:----------------|----------------|----------------|----------------:||
|----------------||-----------------|------------2-2-|----------------|------------2----||
|7-7-7-7-7-7-7-7-||-0-0-1-0-0-1-0-0-|1-0-0-1-0-0-----|0-0-1-0-0-1-0-0-|1-0-0-1-0-0------||

X4
|----------------|----------------|----------------|----------------||
|----------------|------------0-2-|4-5-------------|------0---------||
|----------------|------0-2-3-----|----3---------33|3-2-3---3-2-----||
|0-0-0-0-0-0-0-0-|0-2-3-----------|----------------|------------3-2-||

|----------------|----------------||-----------------|----------------|----------------|
|----------------|------0---------||:----------------|----------------|----------------|
|--------------33|3-2-3---3-2-----||-----------------|----------------|----------------|
|0---------------|------------3-2-||-0---------------|----------------|----------------|

D.S. al Coda2 Coda2
|-----------------||----------------|| ||-----------------|---------------|
|----------------:||----------------|| ||:----------------|---------------|
|-----------------||----------------|| ||-----------------|---------------|
|32-0-32-0-32--||32-0-32-0-32-|| ||-0-0-0-0-0-0-0-0-|0-3-5-0-65-3-5|
S S S S S S H S H

5/8 x8 4/4
|----------------|-----------||----------------|----------------|----------------||
|----------------|----------:||----------------|----------------|----------------||
|----------------|-----------||----------------|----------------|----------------||
|0-0-0-0-0-0-0-0-|0-3/5-3/5--||----------------|32-0-32-0-32-|0---------------||


the thing that should not be

Tune down 1 whole step E string to D
X 4 TIMES
|---|----------------|----------------||-----------------|-----------------||
|-4-|-----PAUSE------|----------------||:----------------|----------------:||
|-4-|----7-BEATS-----|----------------||-------1-------2-|------3----------||
|---|----------------|--------------0-||-0-1-2-------2---|----2---------0--||

||-----------------|-----------------||--------- ---- ---|----------------|
||:----------------|----------------:||--------- ---- ---|----------------|
||-------1-------2-|------3----------||--------- ---- ---|----------------|
||-0-1-2-----1-2---|--1-2-----1-2-0--||7-7-7-7-10-7-10---|6-3-3-3-6-3-6---|

|----------------|----------------|----------------|----------------|
|----------------|----------------|----------------|----------------|
|----------------|----------------|----------------|----------------|
|7-4-4-4-7-4-7---|4-1-1-1-1-1-1-1-|2---------------|--------------0-|

|----------------|----------------||
|----------------|----------------||
|----------------|----------------||
|2---------------|--------------0-||

1ST,2ND,3RD VERSES

|----------------|----------------|----------------|----------------|
|----------------|----------------|----------------|----------------|
|----------------|----------------|----------------|----------------|
|2---------------|--------------0-|2---------------|---------------0|

|----------------|----------------|----------------|----------------|
|----------------|----------------|----------------|----------------|
|------1-------2-|------3---------|------1-------2-|------3---------|
|0-1-2-------2---|----2---------0-|0-1-2-------2---|----2---------0-|

|----------------|----------------|----------------|----------------|
|----------------|----------------|----------------|----------------|
|----------------|----------------|----------------|----------------|
|2---------------|--------------0-|2---------------|--------------0-|

|----------------|----------------|--------- ---- ---|----------------|
|----------------|----------------|--------- ---- ---|----------------|
|------1-------2-|------3---------|--------- ---- ---|----------------|
|0-1-2-------2---|----2---------0-|7-7-7-7-10-7-10---|6-3-3-3-6-3-6---|

|----------------|----------------|--------- ---- ---|----------------|
|----------------|----------------|--------- ---- ---|----------------|
|----------------|----------------|--------- ---- ---|----------------|
|7-4-4-4-7-4-7---|4-1-1-1-1-1-1-1-|7-7-7-7-10-7-10---|6-3-3-3-6-3-6---|

|----------------|----------------|----------------|----------------|
|----------------|----------------|----------------|----------------|
|----------------|----------------|0-------1-------|----------------|
|7-4-4-4-7-4-7---|4-1-1-1-1-1-1-1-|----------------|5-6---5-6-0-0-0-|

|----------------|---|--------|---|----------------|----------------|
|----------------|-2-|--------|-4-|----------------|----------------|
|----------------|-4-|--------|-4-|0-------1-------|----------------|
|0-0-0-0-0-0-0-0-|---|5-6---5-|---|----------------|5-6---5-6-0-0-0-|

2nd Time to Coda 1
3rd Time to Coda 2
@
|----------------|---|--------|---|----------------|----------------|
|----------------|-2-|--------|-4-|----------------|----------------|
|----------------|-4-|--------|-4-|0-------1-------|--------0-------|
|0-0-0-0-0-0-0-0-|---|5-6---5-|---|----------------|1-------------0-|

||-----------------|-----------------||-----------------|-----------------||
||:----------------|----------------:||:----------------|----------------:||
||-------1-------2-|------3----------||-------1-------2-|------3----------||
||-0-1-2-------2---|----2---------0--||-0-1-2-----1-2---|--1-2-----1-2-0--||

Coda 1
@ Guitar Solo X 4 Times
|----------------|----------------||-----------------|-----------------||
|----------------|----------------||:----------------|----------------:||
|--------0-------|----------------||-----------------|-----------------||
|1---------------|--------5-6---5-||-6-0-0-0-0-0-0-0-|0-0-0-0-5-6---5--||

|----------------|----------------|----------------|----------------|
|----------------|----------------|----------------|----------------|
|0-----0-10--1-0-|0-----0-310-1-0-|0-------1-------|0-----0-510-1-0-|
|--3-5-----3-----|--3-5-----------|----------------|--3-5-----------|

D.S. al Coda 2
X 4 Times
|----------------|----------------||-----------------|-----------------||
|----------------|----------------||:----------------|----------------:||
|0-------1-------|--------0-------||-------1-------2-|------3----------||
|----------------|1-------------0-||-0-1-2-----1-2---|--1-2-----1-2-0--||

Coda 2 Repeat and Fade
|----------------|----------------||-----------------|-----------------||
|----------------|----------------||:----------------|----------------:||
|--------0-------|0-----0-510-1-0-||-----------------|-----------------||
|1---------------|--3-5-----------||-5-6---5-6-0-0-0-|0-0-0-0-0-0-0-0--||

welcome home (sanitarium)

Intro 4/4 2/4 4/4
|-----------------|---------------------|-----------|----------------------|
|-------7---------|------------7-----75|(5)----57--|----------------------|
|-----PAUSE-------|---------------------|-----------|7---------------------|
|-----------------|---------------------|-----------|----------------------|
H
2/4 4/4 2/4
|-------------------------|-------------||-------------------|------------------|------------||
|---------------7------7/9|(9)-----57---||:------------------|------------------|-----------:||
|(7)----------------------|----7--------||----------3------3-|5------5----------|------------||
|-------------------------|-------------||-0------0----------|---------5------3-|(3)-3--5---||
H 2 (2nd,4th
times)
4/4 2/4
||------------------|----------------|----------||
||------------------|----------------|----------||
||---------3-----23-|5-3-2-----------|----------||
||0------0----------|------3-5------3|(3)-3-2-2-||

1st, 2nd Verses
4/4 2/4
|----------------|----------------|-----------|-----------------|-----------------|-----------|
|----------------|----------------|-----------|-----------------|-----------------|-----------|
|--------3-----3-|5-----5---------|-----------|--------3------3-|5------5---------|-----------|
|0-----0---------|--------5---5-3-|(3)--3--5--|0-----0----------|---------5---5-3-|(3)-3-2-2--|

4/4 2/4 4/4 2/4
|----------------|----------------|-----------|-----------------|-----------------|-----------|
|----------------|----------------|-----------|-----------------|-----------------|-----------|
|--------3-----23|5-3-2-----------|-----------|--------3------23|-5-3-2-----------|-----------|
|0-----0---------|------3---5----3|(3)-3-2-2--|0-----0----------|-------3-5-5-5-3-|(3)-3-2-2--|

4/4 2/4 4/4 2/4
|----------------|----------------|--------|----------------|----------------|--------||
|----------------|----------------|--------|----------------|----------------|--------||
|----2-2-----3-3-|----5-5---------|--------|----2-2-----3-3-|----5-5---------|--------||
|0-0-----0-0-----|0-0-----5-5-5-3-|3-3-5-2-|0-0-----0-0-----|0-0-----5-5-5-3-|3-3-5-2-||

Chorus
4/4
|-------------------|----------------|-------------------|------------------|
|-------------------|-------020------|-------------------|------------------|
|-----------32--32|(2)-------32----|-----------32--32|(2)-22222232------|
|0---XX32XX---XX---|------------5323|0---XX32XX---XX---|-------------3-X-1|
HP
Second time to Coda
|-------------------|----------------|-------------------|------------------||
|-------------------|-------020------|-------------------|------------------||
|-----------32--32|(2)-------32----|-----------32--3--|2-----------------||
|0---XX32XX---XX---|------------5323|0---XX32XX---XX---|------------------||
HP
2/4 3 times
||-----------------|----------------|-------------||
||:----------------|----------------|------------:||
||---------3-----3-|5-----5---------|-------------||
||-0-----0---------|--------5-----3-|(3)--3--5---||
2 (2nd time)

4/4 2/2 D.S. al Coda
|------------------|-----------------|----------||
|------------------|-----------------|----------||
|---------3------3-|5------5---------|----------||
|0------0----------|---------5-5-5-5-|(3)-3-2-2-||

Coda
2/4 4/4 2/4
|----------------|------------------|-------------|----------------|
|-------020------|------------------|-------------|-------020------|
|----------32----|-----------32--3-|2------------|----------32----|
|------------5323|0---XX32XX---XX--|-------------|------------5323|
HP HP

Double time
4/4
|-------------|-------------|-------------|-------------|----------------|----------------|
|-------------|-------------|-------------|-------------|----------------|----------------|
|-------------|-------------|-------------|-------------|----------------|----------------|
|0------------|(0)----------|(0)----------|(0)----------|0-0-0-0-0-0-0-0-|0-0-0-0-0-0-0-0-|

|-------------|-------------|----------------|----------------|----------------|----------------|
|----%--------|------%------|----------------|----------------|----------------|----------------|
|-------------|-------------|----------------|----------------|----------------|----------------|
|-------------|-------------|5-7---5-7-0-0-0-|0-0-0-0-0-0-0-0-|5-6---5-6---5-6-|--5-7-0-0-0-0-0-|
H H H H H H

X3
||-----------------|----------------|----------------|-----------------||
||:----------------|----------------|----------------|----------------:||
||-----------------|----------------|----------------|-----------------||
||-5-6---5-6-0-0-0-|0-0-0-0-0-0-0-0-|5-6---5-6---5-6-|--5-7-0-0-0-0-0--||
H H H H H H

|------------|-----------|------------|--------------|
|------------|-----------|------------|--------------|
|02----------|02-55------|02----------|02-33-32-22---|
|---00-------|-----------|---11-------|--------------|

|------------|-----------|------------|--------------|-----------------|
|------------|-----------|------------|--------------|-----------------|
|02----------|02-55------|02----------|02-33-32-22---|-----------------|
|---00-------|-----------|---11-------|--------------|000000000000(12)|

Double time
Guitar Solo
||---------------------------------------------------------------------||
||:-------------------------------------------------------------------:||
||---------------------------------------------------------------------||
||-5-6---5-6-0-0-0-|0-0-0-0-0-0-0-0-|5-6---5-6---5-6-|--5-7-0-0-0-0-0--||

Nornal time X6
|------------|------------||------------|-----------|-----------|---------------||
|------------|------------||:-----------|-----------|-----------|--------------:||
|02----------|02-55---5---||-02---------|02-55------|02---------|02-33---32-22--||
|---00-------|------------||----00------|-----------|---11------|---------------||

|-----------|-----------|-----------|--------------|
|-----------|-----------|-----------|--------------|
|02---------|02-55------|02---------|02-33---32-22-|
|---00------|-----------|---11------|--------------|

|----------------|----------------|----------------|----------------|------------------|
|----------------|----------------|----------------|----------------|------------------|
|02--------------|02-55---5-5-5-5-|02--------------|02-33---2-2-2-2-|2-2-2-2--2-2-2-2--|
|---00---0-0-0-0-|----------------|---11---1-1-1-1-|----------------|------------------|

|----------------|----------------|----------------|----------------||
|----------------|----------------|----------------|----------------||
|2---0-----------|----------------|----------------|----------------||
|--------3---2---|0---------------|(0)-------------|7--------------||
/ /
/ /
/ /

disposable heroes

|---||------------------------|------------------------|
|-6-||------------------------|------------------------|
|-4-||------------------------|------------------------|
|---||0-0-0-0-0-0-2---3---2---|0-0-0-0-0-0-3---5---2---|

------------------------|------------------------|
|1.2. |3.
|------------------------|------------------------|------------------------|
|------------------------|------------------------|------------------------|
|------------------------|------------------7-----|------------------------|
|0-0-0-0-0-0-2---3---2---|0-0-0-0-0-0-0-0-0-------|0-0-0-0-0-0-0-0-0-0-----|

|------------------------
|4.
|------------------------|------------------------||---|----------------|
|------------------------|------------------------||-4-|-----PAUSE------|
|------------------------|------------------------||-4-|----3-BEATS-----|
|0-0-0-0-0-0-0-0-0-0-----|------------------------||---|----------------|

|--------9---9---|9---p-----------|----------------|-----|-----||
|----------------|----------------|----------------|-----|-----||
|----------------|----------------|----------------|--%--|--%--||
|----------------|----------------|0-0-p-----------|-----|-----||

X6 times
||-----------------|-----|-----|------||
||:----------------|-----|-----|-----:||
||-----------------|--%--|--%--|--%---||
||-0-000-0-0-0-0000|-----|-----|------||

X3 TImes
||-----------------|------||----------------|----------------|
||:----------------|-----:||----------------|----------------|
||-4-4444444-444444|--%---||0-p---0-p-------|----------------|
||-----------------|------||----------------|3-p-------------|

X 4 Times
||-----------------|-----------------||
||:----------------|----------------:||
||-----------------|-----------------||
||-0-000-0-0-0-0000|0-000-0-0-0-0000-||

1st,2nd,3rd Verses
||----------------|----------------|----------------|----------------|
||----------------|----------------|----------------|----------------|
||----------------|----------------|----------------|----------------|
||0-000-0-0-0-0000|0-000-0-0-0-0000|3-333-3-3-3-3333|2-222-2-2-2-2222|

|----------------|----------------|----------------|----------------|
|----------------|----------------|----------------|----------------|
|----------------|----------------|----------------|----------------|
|0-000-0-0-0-0000|0-000-0-0-0-0000|3-333-3-3-3-3333|7-777-7-7-7-7777|

|----------------|----------------|----------------|----------------|
|----------------|----------------|----------------|----------------|
|----------------|----------------|----------------|----------------|
|0-000-0-0-0-0000|0-000-0-0-0-0000|3-333-3-3-3-3333|2-222-2-2-2-2222|

|----------------|----------------|----------------|----------------|
|----------------|----------------|----------------|----------------|
|----------------|----------------|----------------|----------------|
|0-000-0-0-0-0000|0-000-0-0-0-0000|0-000-0-0-0-0000|0-000-0-0-0-0000|

|----------------|----------------|---|------------|------------|---|
|----------------|----------------|-3-|------------|------------|-4-|
|4-4444444-444444|4-4444444-444444|-4-|4-4444444-44|2-2222222-22|-4-|
|----------------|----------------|---|------------|------------|---|

|----------------|----------------|---|------------|------------|---|
|----------------|----------------|-3-|------------|------------|-4-|
|4-4444444-444444|4-4444444-444444|-4-|4-4444444-44|2-2222222-22|-4-|
|----------------|----------------|---|------------|------------|---|

|----------------|----------------|---|------------|------------|---|
|----------------|----------------|-3-|------------|------------|-4-|
|4-4444444-444444|4-4444444-444444|-4-|4-4444444-44|2-2222222-22|-4-|
|----------------|----------------|---|------------|------------|---|

|----------------|----------------|---|------------|------------|---|
|----------------|----------------|-3-|------------|------------|-4-|
|4-4444444-444444|4-4444444-444444|-4-|4-4444444-44|2-2222222-22|-4-|
|----------------|----------------|---|------------|------------|---|

||-----------------|----------------|---|----------------|-----------------||
||:----------------|----------------|-3-|----------------|----------------:||
||-2-2222222-222222|2-2222222-222222|-4-|2-2222222-222222|0-0000000-000000-||
||-----------------|----------------|---|----------------|-----------------||

|3rd time ONLY! |
|---|----------------|----------------|----------------|----------------|
|-4-|----------------|----------------|----------------|----------------|
|-4-|2--1--2-3---2---|4--3--4-5---6---|----------------|----------------|
|---|----------------|----------------|0-000-0-0-0-0-3-|----------6---2-|
3 / 3 /
Chorus
|----------------|----------------||-----------------|----------------|
|----------------|----------------||:----------------|----------------|
|----------------|----------------||-----------------|----------------|
|----------5---1-|----------3-----||-0-000-0-0-0-0-3-|----------6---2-|

|----------------|-----------------||----------------|----------------|
|----------------|----------------:||----------------|----------------|
|----------------|-----------------||----------------|----------------|
|----------5---1-|----------3------||0-000-0-0-0-0-3-|----------6---2-|

3rd Time to Coda @ 1st time to Verse2
|----------------|----------------|---|--------------|---|--------|
|----------------|----------------|-7-|--------------|-2-|--------|
|----------------|----------------|-8-|--------------|-4-|--------|
|----------5---1-|----------3-----|---|0-000-0-0-0-0-|---|0-p-----|

|---|--------------|---||-----------------|-----|-----|-----------------||
|-7-|--------------|-4-||:----------------|-----|-----|----------------:||
|-8-|--------------|-4-||-----------7-----|--%--|--%--|----------7------||
|---|0-000-0-0-0-0-|---||-0---0-0-0---0-0-|-----|-----|0---0-0-0---0----||

Bridge
|----------------|----------------|----------------|----------------|
|----------------|----------------|----------------|----------------|
|----------7-----|----------7-----|----------7-----|----------7-----|
|0---0-0-0---0-0-|0---0-0-0---0-0-|0---0-0-0---0-0-|0---0-0-0---0---|

|----------------|----------------|----------------|----------------|
|----------------|----------------|----------------|----------------|
|----------7-----|----------7-----|----------7-----|----------7-----|
|0---0-0-0---0-0-|0---0-0-0---0-0-|0---0-0-0---0-0-|0---0-0-0---0---|

Guitar Solo X4 Times
||-----------------|-----|-----|-----------------||
||:----------------|-----|-----|----------------:||
||-----------7-----|--%--|--%--|----------7------||
||-0---0-0-0---0-0-|-----|-----|0---0-0-0---0----||

|----------------|----------------|----------------|----------------|
|----------------|----------------|----------------|----------------|
|3---3-3-3---3-3-|3---3-3-3-5-----|3---------------|----------------|
|----------------|----------------|----------------|----------------|

|----------------|-----|-----|----------------|----------------|
|----------------|-----|-----|----------------|----------------|
|----------7-----|--%--|--%--|----------7-----|3---3-3-3---3-3-|
|0---0-0-0---0-0-|-----|-----|0---0-0-0---0---|----------------|

|----------------|----------------|----------------|-----|-----|
|----------------|----------------|----------------|-----|-----|
|3---3-3-3-5-----|3---------------|----------7-----|--%--|--%--|
|----------------|----------------|0---0-0-0---0-0-|-----|-----|

|----------------||---------- -------|- ------- -------|-----|
|----------------||:--------- -------|- ------- -------|--2--|
|----------7-----||---------10-7-----|10-7----10-7-----|--%--|
|0---0-0-0---0-0-||-8---8-8-- ---8-8-|- ---8--- ---8-8-|-----|
P P P

|----------------|-----|-----|-----------------||
|----------------|-----|-----|----------------:||
|----------7-----|--%--|--%--|----------7------||
|0---0-0-0---0-0-|-----|-----|0---0-0-0---0-0--||

||-----------------|-----|-----|-----------------||
||:----------------|-----|-----|----------------:||
||-----------7-----|--%--|--%--|----------7------||
||-0---0-0-0---0-0-|-----|-----|0---0-0-0---0----||

Why.....
||-----------------|-----|-----|-----------------||
||:----------------|-----|-----|----------------:||
||-----------7-----|--%--|--%--|----------7------||
||-0---0-0-0---0-0-|-----|-----|0---0-0-0---0-0--||

I Was born for dying... X6 Times
|---|--------------|---|----------------|---------||----------------|
|-7-|--------------|-4-|----------------|--PAUSE--||----------------|
|-8-|--------------|-4-|----------------|-3-beats-||4-4444444-444444|
|---|0-000-0-0-0-0-|---|0-p-------------|---------||----------------|

@Coda
|----------------|----------------| |----------------|----------------|
|----------------|----------------| |----------------|----------------|
|0-----0-p-------|----------------| |----------------|----------------|
|----------------|3--p------------| |----------3-----|0-000-0-0-0-0-3-|

-----------------
|1.2.3. |
||-----------------|----------------|----------------|-----------------|
||:----------------|----------------|----------------|----------------:|
||-----------------|----------------|----------------|-----------------|
||-----------6---2-|----------5---1-|----------3-----|0-000-0-0-0-0-3--|

----------------- ----------------
|4. |1. |
|---|--------------|---||-----------------|-----|-----|--- ----------- ---||
|-7-|--------------|-4-||:----------------|-----|-----|--- ----------- --:||
|-8-|--------------|-4-||-4-4444444-444444|--%--|--%--|0-10-9-0-9-7--- ---||
|---|0-000-0-0-0-0-|---||-----------------|-----|-----|--- ---------10-9--||
P P P

-------------------------------------------------------------------
|2. |
|--- ---------- ---|----------------|-----|-----|--- ---------- ----||
|--- ---------- ---|----------------|-----|-----|--- ---------- ---:||
|0-10-9-0-9-7-- ---|5-5555555-555555|--%--|--%--|0-10-9-0-9-7--
----||
|-------------10-9-|----------------|-----|-----|-------------10-9--||
P P P P P P

--------------------------------------------------------------------
|3.
|----------------|----------------|----------------|6---------------|
|----------------|----------------|--------6-------|--------6-------|
|0-----0-p-------|----------------|4---------------|----------------|
|----------------|3--p------------|----------------|----------------|

----------------------------------- ----------------------------------
||4.
|----------------|-----------------||----------------|----------------|
|----------------|----------------:||----------------|----------------|
|4---------------|-----------------||0-----0-p-------|----------------|
|----------------|-----------------||----------------|3--p------------|

-----------------
|
|----------------||
|----------------||
|4------(4)-----||
|----------------||
S

Leper messiah

||----------------|----------------|----------------|----------------|
||----------------|----------------|----------------|----------------|
||----------------|------------0---|----------------|----------------|
||------------0-0-|3---0-0-3-------|------------0-0-|3---0-0-3-------|

|----------------|----------------|----------------|----------------|
|----------------|----------------|----------------|----------------|
|----------------|----------------|----------------|--------0-------|
|------------0-0-|3---0-0-3---1---|------------0-0-|3---0-0-----0-0-|

|---|------------|---|----------------|----------------|----------------|
|-3-|------------|-4-|----------------|----------------|----------------|
|-4-|----2-0-----|-4-|----------3-----|----------------|----------3-----|
|---|5-3-----321-|---|0---2-p-2---2---|2-p-2-p-2-3-2---|0---0-0-2---2---|
3/

|-----------------||----------------|----------------|----------------|
|----------------:||----------------|----------------|----------------|
|-----------------||32------32------|32----------5-7-|32------32------|
|2-p-2-p-2-3-2-2--||----0-0-----0-0-|----0-0-87------|----0-0-----0-0-|
P P P P H

|----------------|----------------|----------------||-----------------|
|----------------|----------------|----------------||:----------------|
|32--------------|----------------|----------------||-----------------|
|----0-0-3-3-2-2-|0---0-0-p---0-0-|----0-0-3-3-2-2-||-----0-0-----0-0-|
P

|-----------------||----------------|---|--------------------|---|
|----------------:||----------------|-5-|--------------------|-4-|
|-----------------||----------------|-4-|--------3-2-0---3-p-|-4-|
|----0-0-3-3-2-2--||----0-0-----0-0-|---|1-0-3---------------|---|

|----------------|----------------|----------------|----------------||
|----------------|----------------|----------------|----------------||
|32------32------|32------32------|32------32------|------------0---||
|----0-0-----0-0-|----0-00----13--|----0-0-----0-0-|0-0-3---0-0-----||

1st, 2nd Verses
||-----------------|----------------|----------------|-----------------||
||:----------------|----------------|----------------|----------------:||
||-32------32------|32------32------|----------------|-----------------||
||-----0-0-----0-0-|----0-00----13--|32--2-2-32--2-2-|32--2-2-32--23---||
P P P P S S S S S

||-----------------|----------------|----------------|-----------------||
||:----------------|----------------|----------------|----------------:||
||-32------32------|32------32------|----------------|-----------------||
||-----0-0-----0-0-|----0-00----13--|32--2-2-32--2-2-|32--2-2-32--23---||
P P P P S S S S S

||----------------|----------------|----------------|----------------||
||----------------|----------------|----------------|----------------||
||--------6-------|5-------4-------|--------6-------|5-------4-------||
||0---------------|----------------|0---------------|----------------||

Chorus
||----------------|----------------|----------------|----------------|
||----------------|----------------|----------------|----------------|
||----------------|----------------|----------------|----------------|
||7---0-0-76--0-0-|65--0-0-54--0-0-|7---0-0-76--0-0-|65--0-0-54--0-0-|
S S S S S S

|----------------|----------------|----------------|----------------|
|----------------|----------------|----------------|----------------|
|----------------|----------------|----------------|----------------|
|7---0-0076--0-00|65--0-0054--0-00|7---000076--0000|65--000054--0000|
S S S S S S

|----------------|----------------|----------------|----------------|
|----------------|----------------|----------------|----------------|
|----------------|----------------|----------3-----|----------------|
|43--333343--3333|43--333343--3333|0---2-p-2---2---|2-p-2-p-2-3-2---|
S S S S

|----------------|----------------|----------------|---|--------------------|
|----------------|----------------|----------------|-5-|--------------------|
|----------3-----|----------------|----------3-----|-4-|--------------------|
|0---0-0-2---2---|2-p-2-p-2-3-2-2-|0---2-p-2---2---|---|2-p-2-p-2-3-2---0-0-|

|---|----------------|---|------------||---|----------------|----------------|
|-4-|----------------|-3-|------------||-4-|----------------|----------------|
|-4-|--------0-------|-4-|----2-0-----||-4-|----------------|----------------|
|---|3---0-0-----0-0-|---|5-3-----321-||---|0-----------321-|0---321-0---321-|
3/ 3/ 3/ 3/
Faster
|----------------|----------------|----------------|----------------|
|----------------|----------------|----------------|----------------|
|----------------|----------------|----------------|----------------|
|0---------------|----------------|1---------------|3-------5-------|

|----------------|----------------|----------------|----------------|
|----------------|----------------|----------------|----------------|
|----------------|----------------|5---------------|0-------2-------|
|0---------------|----------------|----------------|----------------|

|----------------|----------------|----------------|----------------|
|----------------|----------------|----------------|----------------|
|----------------|----------------|----------------|----------------|
|0---------------|0-0-p-----------|1---------------|3-------5-------|

|----------------|----------------|----------------|----------------|
|----------------|----------------|----------------|----------------|
|----------------|----------------|5---------------|0-0-0p002---2---|
|0---------------|0-0-p-----------|----------------|----------------|

||-----------------|----------------|----------------|----------------|
||:----------------|----------------|----------------|----------------|
||-----------------|----------------|----------------|----------------|
||-00000---00000---|00000---00000---|11111---11111---|33333---55555---|

|----------------|----------------|----------------|-----------------||
|----------------|----------------|----------------|----------------:||
|----------------|----------------|55555---55555---|00--0-p02---2----||
|00000---00000---|00000---00000---|----------------|-----------------||

Guitar Solo
Triplet Feel 0-0- = 0---0-
3 /

||-----------------|----------------|----------------|----------------|
||:----------------|----------------|----------------|----------------|
||-----------------|----------------|----------------|----------------|
||-0-0-0-0-0-0-0-0-|0-0-0-0-0-0-0-0-|1-1-1-1-1-1-1-1-|3-3-3-3-5-5-5-5-|

End of Triplet Feel
|----------------|----------------|----------------|-----------------||
|----------------|----------------|----------------|----------------:||
|----------------|----------------|5-5-5-5-5-5-5-5-|00--0-p02---2----||
|0-0-0-0-0-0-0-0-|0-0-0-0-0-0-0-0-|----------------|-----------------||

||-----------------|----------------|----------------|----------------|
||:----------------|----------------|----------------|----------------|
||-----------------|----------------|----------------|----------------|
||-0---------------|----------------|1---------------|3-------5-------|

|----------------|----------------|----------------|-----------------||
|----------------|----------------|----------------|----------------:||
|----------------|----------------|5---------------|00--0-p02---2----||
|0---------------|----------------|----------------|-----------------||

|----------------|----------------|----------------|----------------|
|----------------|----------------|----------------|----------------|
|----------------|----------------|----------------|----------------|
|5-555-555-555-55|5-555-555-555-55|3-333-333-333-33|2-222-221-111-11|

Chorus
|----------------|----------------|----------------|----------------|
|----------------|----------------|----------------|----------------|
|--------6-------|5-------4-------|--------6-------|5-------4-------|
|0---------------|----------------|0---------------|----------------|

|----------------|----------------|----------------|----------------|
|----------------|----------------|----------------|----------------|
|----------------|----------------|--------6-------|5-------4-------|
|00000---00000---|00000---00000---|0---------------|----------------|

|----------------|----------------|----------------|----------------|
|----------------|----------------|----------------|----------------|
|--------6-------|5-------4-------|----------------|----------------|
|0---------------|----------------|33333---33333---|33333---33333---|

||-----------------|-----------------||----------------|----------------|
||:----------------|----------------:||----------------|----------------|
||-7-------6-------|5-------4--------||----------------|----------------|
||---000-00--000-00|--000-00--000-00-||3-333-333-333-33|3-333-333-333-33|

|----------------|----------------|----------------|----------------||
|----------------|----------------|----------------|----3 BEATS-----||
|----------------|----------------|----------------|-----PAUSE------||
|3-------3-------|3-------3-------|3---------------|----------------||

SLOWER
|----------------|----------------|----------------|----------------|
|----------------|----------------|----------------|----------------|
|--------2-0-----|----------3-----|----------------|----------3-----|
|3-2-5-3-----321-|0---2-p-2---2---|2-p-2-p-2-3-2---|0---0-0-2---2---|
3/

|----------------|----------------|---|--------------------|---|
|----------------|----------------|-5-|--------------------|-4-|
|----------------|----------3-----|-4-|--------------------|-4-|
|2-p-2-p-2-3-2-2-|0---2-p-2---2---|---|2-p-2-p-2-3-2---0-0-|---|

|----------------|---|------------|---|----------------|----------------||
|----------------|-3-|------------|-4-|----------------|----------------||
|--------0-------|-4-|----2-------|-4-|----------------|----------------||
|3---0-0-----0-0-|---|5-3---5-321-|---|0---------------|1---000-0---p---||
3/

orion

Fade In
||----------------|----------------|----------------|----------------||
||----------------|----------------|9---------------|----------------||
||7---------------|----------------|----------------|9---------------||
||----------------|----------------|----------------|----------------||

Riff #1 X6 Times
||-----------------|----------------|----------------|-----------------||
||:----------------|----------------|----------------|----------------:||
||-7-----7-----7---|7-----7-----7---|5-----5-----5-5-|6-----6-----6-6--||
||---0-0---0-0---0-|--0-0---0-0---0-|--7-7---7-7-----|--7-7---7-7------||

-----------------
|1.2.3. |
||-----------------|----------------|----------------|-----------------||
||:----------------|----------------|----------------|----------------:||
||-p---0-----------|3---------------|p---3-----------|0----------------||
||-----------0-----|----------------|----------0-----|-----------------||

----------------
|4.
|----------------|
|----------------|
|0---------------|
|------0-001-110-|

Riff #2 X4 Times
||-----------------|----------------|----------------|-----------------||
||:----------------|----------------|----------------|----------------:||
||-----0-----2-----|3---------------|----3-----2-----|0----------------||
||-0-00--0000--0000|--00000-001-110-|0-00--0000--0000|--00000-001-110--||

Play Riff #1 six times

|----------------|----------------|----------------|----------------|
|----------------|----------------|----------------|----------------|
|2-2-2-2-2-2-2-0-|2-2-2-2-2-2-2-0-|0-0-0-0-0-0-0---|------------0-0-|
|----------------|----------------|--------------0-|2-2-2-2-2-2-----|

|----------------|----------------|----------------|----------------|-----|
|----------------|----------------|----------------|----------------|PAUSE|
|2-2-2-2-2-2-2-0-|0-0-0-0-0-0-0---|----------------|----------------|1BEAT|
|----------------|--------------0-|2-2-2-2-2-2-0-0-|0-----0-0-0-0---|-----|

|----------------|----------------|----------------|----------------|-----|
|----------------|----------------|----------------|----------------|PAUSE|
|2-----2-2-2-2-p-|0-----0-0-0-0---|----------------|----------------|1BEAT|
|----------------|----------------|2-----2-2-2-2---|0---------------|-----|
3 / 3 /

Interlude Bass Solo
|---|---- 11---9---|--9-----9---|---- 11---9---|--9---------|---- 11---9---|
|-6-|---11- -7---7-|9---9-------|---11- -7---7-|9---9-------|---11- -7---7-|
|-8-|9--- - -------|------7---7-|9--- - -------|------7-----|9--- - -------|
|---|---- - -------|------------|---- - -------|------------|---- - -------|

|--9---------|----- 11---9---|--9--/9999- -|
|9---9---9---|----11- -7---7-|9---9-----119|
|------7---7-|9---- - -------|----------- -|
|------------|----- - -------|----------- -|
S

|---- 11---9---|--9-----9---|---- 11---9---|--9---------|---- 11---9---|
|---11- -7---7-|9---9-------|---11- -7---7-|9---9-------|---11- -7---7-|
|9--- - -------|------7---7-|9--- - -------|------7-----|9--- - -------|
|---- - -------|------------|---- - -------|------------|---- - -------|

/
|--9---------|---- 11---9---|99999996----|
|9---9---9---|---11- -7---7-|--------97--|
|------7---7-|9--- - -------|----------97|
|------------|---- - -------|------------|
S

|---- 11---9---|--9-----9---|---- 11---9---|--9---696---|
|---11- -7---7-|9---9-------|---11- -7---7-|9---9----976|
|9--- - -------|------7---7-|9--- - -------|------------|
|---- - -------|------------|---- - -------|------------|

|---- 11---9---|--9-----9---|---- 11---9-9-|--9-9-976---|
|---11- -7---7-|9---9------7|---11- -7-----|9--------976|
|9--- - -------|------7---7-|9--- - -------|------7-----|
|---- - -------|------------|---- - -------|------------|

|---- 11---9---|--9-----9---|---- 11---9---|--9---------|
|---11- -7---7-|9---9-------|---11- -7---7-|9---9-97----|
|9--- - -------|------7---7-|9--- - -------|--------97-7|
|---- - -------|------------|---- - -------|----------9-|

|---- 11---9---|--9---------|---- 11---9---|------------|
|---11- -7---7-|9---9----976|---11- -7---7-|9-9-9-------|
|9--- - -------|------7-----|9--- - -------|------777777|
|---- - -------|------------|---- - -------|------------|


|---- 11---9---|--9-----9---|---- 11---9---|--9---99996-|
|---11- -7---7-|9---9-------|---11- -7---7-|9---9------9|
|9--- - -------|------7---7-|9--- - -------|------------|
|---- - -------|------------|---- - -------|------------|

/ /
|---- 11---9---|--9---------|---- 11---9---|99999996----|
|---11- -7---7-|9---9----976|---11- -7---7-|--------97--|
|9--- - -------|------7-----|9--- - -------|----------97|
|---- - -------|------------|---- - -------|------------|
S S

|---- 11---9---|--9---------|---- 11---9---|111111111111119- -- - |
|---11- -7---7-|9---9-----67|---11- -7---7-|- - - - - - - -119- - |
|9--- - -------|------7--9--|9--- - -------|- - - - - - - -- -12- |
|---- - -------|------------|---- - -------|- - - - - - - -- -- 12|

X4 Times
||------11-- -- - - - |--9----------||
||:---11- -- 14- - - |9--96---76--:||
||-9-9- - -12-- 121112|-----97---7--||
||----- - -- -- - - - |-------------||

||----- - - - -- - 9- |- -- -- - -- - - - -||
||:---- 11- 11-- 11-11|12-129- - -- - - - :||
||-9-912- 12- -12- -- |- -- -11- -- 111411-||
||----- - - - -- - -- |- -- -- 12-12- - - -||

||-- - - -- - - - - - - 9|- - - -- --- - - - - - -||
||:- - - - 11111111- 11-|1212129- 9-- - - - - - :||
||-121212912- - - - 12- -|- - - -11--- - - 111411-||
||-- - - -- - - - - - - -|- - - -- --121212- - - -||

X4 Times X4 Times
||-------------|-------------||-------------|-------------||
||:------------|-----------

Related Metallica Bass Tabs

Cliff Em All Bellz bass
The Unforgiven bass
Enter Sandman(100% Correct And Improved) bass
Orion Bass Solo bass
London Dungeon bass
Bleeding Me bass
For Whom The Bell Tolls(improved) bass
89' Seattle Bass Solo bass
Dyers Eve bass
Battary bass
Cliff Burton Memorial R.i.p bass
Master Of Puppets( Easier 2 Play) bass
Thorn Within bass
No Leaf Clover bass
And Justice For All bass
I Disappear bass
Phantom Lord bass
Invisible Kid bass
Whiplash bass
The More I See bass


Guitar Tabs




All tabs are property and copyright of their owners. All tabs provided for educational purposes only. Privacy Policy, DMCA, Links