Metallica

I Disappear Bass Tabs



More from Metallica

Metallica Tabs
Metallica Chords
Metallica Bass
Metallica Lyrics



G---------|--------|--------|--------|
D---------|--------|--------|--------|
A---------|--------|--------|--------|
E-0--0-0--|---0-0--|---0-0--|---0-0--|


G-------|*---------*|
D-------|*---------*|
A-------|*---------*|
E-0--7~-|*--5-0--7~*|


G-------|--------|--------|--------|-------|
D-------|--------|--------|--------|-------|
A-------|--------|--------|--------|-------|
E-0--7~-|-5-0--7~|-5-0--7~|-5-0--7~|-3-3--0|


G-------|-------|-------|-------|-------|
D-------|-------|-------|-------|-------|
A-------|-------|-------|-------|-------|
E-0-0-0-|-0-0-0-|-0-0-0-|-0-0-0-|-3-3--0|


G-------|-------|-------|-----------------------------|
D-------|-------|-------|-----------------------------|
A-------|-------|-------|-----------------------------|
E-0-0-0-|-0-0-0-|-0-0-0-|-3-3--2-2--2/5-5--7-7-------|


G-------|-------|-------|-------|-------|
D-------|-------|-------|-------|-------|
A-------|-------|-------|-------|-------|
E-0-0-0-|-0-0-0-|-0-0-0-|-0-0-0-|-3-3--0|


G---------|-----|-----|
D---------|-----|-----|
A---------|-----|-----|
E--0--0-0-|-0-0-|-0-0-|


G------------|
D------------|
A------------|
E--3-3--2--0-|


G------------------------------------------------------------|
D------------------------------------------------------------|
A------------------------------------------------------------|
E--3-3-3-3-3-3-3-3-3-3-3-3-3-3-3-3/9-10-10-10-10-10-10-10-10-|


G---------------------|
D---------------------|
A---------------------|
E--8-7-5--5-4-0--2----|


G-------|--------|--------|--------|-------|
D-------|--------|--------|--------|-------|
A-------|--------|--------|--------|-------|
E-0--7~-|-5-0--7~|-5-0--7~|-5-0--7~|-3-3--0|


G-----------------|
D-----------------|
A-----------3--5--|
E--3--5--0--------|


G----------------------| G-------------------------|
D----------------------| 3x D-------------------------|
A---------------/5-5-5-| A-------------------------|
E-0--0-0-0-0-0-0-------| E-3-3-3-3-3-3-3-3-3-3-3-3-|


G-----------------------------------------|
D-----------------------------------------|
A-----------------------------------------|
E--0-4~0--3-3--0-4~0--3-3--0-4~0--3-2-1---|

Submitted by tom.feedmyfrankenstein@gmail.com

Brought to you by the BassMasta - http://www.tabs-database.com



Related Metallica Bass Tabs

Orion(instrumental) bass
Killing Time bass
Master Of Puppets(improved) bass
Leper Messiah bass
Bass And Guitar Solo Tribute bass
Bass Solo Seattle 1989 bass
Fade To Black (interlude) bass
So F***ing What(corrected) bass
Slither bass
Pulling bass
Welcome Home/ Sanitarium bass
Call Of Ktulu bass
Its Electric bass
Bad Seed bass
Creeping Death bass
Fuel Bass Tab bass
The Outlaw Torn bass
Motorbreath bass
I Disappear bass
Anthesia-pulling Teeth bass


Guitar Tabs




All tabs are property and copyright of their owners. All tabs provided for educational purposes only. Privacy Policy, DMCA, Links