Metallica

I Disapear (version 2) Tabs



More from Metallica

Metallica Tabs
Metallica Chords
Metallica Bass
Metallica Lyrics



tune your guitar down a half step.
intro:
gtr with distortion and meatball pedal , no wah!!!
1|-x------------x------x-|-----------x------x-|those
2|-x------------x------x-|-----------x------x-|xxs are
3|-x-----9b-----x------x-|o---9b-----x------xo|up strokes.
4|-x------------x------x-|o----------x------xo|
5|-x-----7b-----x------x-|----7b-----x------x-|
6|-0------------0------0-|-----------0------0-|
|gtr 2 with distortion and flanger.
1|-----------------------|--------------------|
2|-----------------------|--------------------|
3|-----------------------|o------------------o|
4|-----------------------|o------------------o|
5|-----------------------|--------------------|
6|2.9-2.9-2.9-2.9-2.9-2.9|2.9-2.9-2.9-2.9-2.9-|
nh..........................................
strice these harmonics up and down , sort of
tremelo picking.

then the main riff comes in.
1|-----------------------|------------------------|
2|-----------------------|------------------------|
3|o---------------------o|------------------------|
4|o---------------------o|------------------------|
5|-7-------7br----7------|--7----7br----5----5----|
6|-0-------7br----5------|--0----7br----3----3----|

the verse.
1|---------------------------------------|
2|---------------------------------------|
3|---------------------------------------|=james
4|---------------------------------------|
5|-2----2-2-2----2-2--2----2-2-2----5--5-|
6|-0----0-0-0----0-0--0----0-0-0----3--3-|
|
1|---------------------------------------|
2|---------------------------------------|
3|---------------------------------------|=kirk
4|----------------------------------5--5-|
5|-----------------5h7-------------------|
6|-0----0-0-0----0----0----0-0-0----3--3-|

then the bridge part ( I'm pain I'm hope ...)
real cool sounding though!!
1|------------------|------------------------|
2|------------------|------------------------|
3|------------------|------------------------|=
4|-5--5--4--4--7--7-|-----------7---7br------|james
5|------------------|---------------------2--|
6|-3--3--2--2--5--5-|-0--2--0---5---5br---0--|
|
1|------------------|------------------------|
2|------------------|------------------------|
3|------------------|------------------------|=
4|-9--9--7--7--11-11|-7--9--7---11--12-------|kirk
5|------------------|------------------------|
6|-7--7--5--5--9--9-|-5--7--5---9---10----0--|

then there is a verse variation that kirk plays.
1|-------------------------------------------|
2|---12--------12--------12--------12----|
3|---12--------12--------12--------12----|
4|---12--------12--------12--------12----|
5|-------------------------------------------|
6|-0------0-0-0------0-0-0------0-0-0--------|

then to the chorus , two gtrs play again.
1|---------------| 1|---------------|
2|---------------| 2|---------------|
3|---------------|james.3|---------------|kirk.
4|---5--5---4----| 4|---5--5---7----|
5|---------------| 5|---------------|
6|---3--3---2----| 6|---3--3---5----|

then the chorus.
kirk plays this with his digitech space station.
1|------------------------------------(12)-|
2|-----------------------------------------|
3|o--5------------------------------------o|2x
4|o----------4-------5--------------------o|
5|----------------------------5------------|
6|------------------------------------(12)-|
nh.......................................
play the low e 12 the 1st time , and high 2nd

this is played all chorusses except 1st one.
james plays this with clean guitar.
1|-0----------------------------------------|
2|---3--------------------------------------|
3|-----2-0----0------------0h2-2-2--2br0----|
4|-------------------0----------------------|
5|------------------------------------------|
6|------------------------------------------|

1|-0----------------------------------------|
2|---3--------------------------------------|
3|-----2-0----0-------0---------------------|
4|------------------0---0--0-2-2-2-0-2-2br--|
5|------------------------------------------|
6|------------------------------------------|

then later , kirk plays this through the chorus.
1|------------------------------------------|
2|------------------------------------------|
3|-8/9-9---8/9-9-9--8/9-9-9--8/9-9-x-1211--|
4|------------------------------------------|
5|-6/7-7---6/7-7-7--6/7-7-7--6/7-7-x-109---|
6|------------------------------------------|

1|-----------------------------|
2|-----------------------------|
3|-8/9-9-9-9-8/9-9--8/9--98--9|
4|-----------------------------|
5|-6/7-7-7-7-6/7-7--6/7--76--7|
6|-----------------------------|

then the solo played by kirk.(use neck pickup)
1|------------------------------|-------------------------|
2|------8-8--8------------------|---8--8-8----------------|
3|------7-7--7--------------12b-|o--7--7-7------------12bo|
4|------6-6--6-------12h14------|o--6--6-6------12h14----o|
5|12---7-7--7------------------|---7--7-7----------------|
6|12-0---------/14-------------|-0--------/14------------|
repeat above 2x. then:
1|----------------------------------------------|
2|----------------------------------------------|
3|--14p12----14p12----14p12----14p12----14p12---|
4|--------14-------14-------14-------14-------14|
5|----------------------------------------------|
6|----------------------------------------------|
then repeat 1st solo bar , and then play this:

1|------------------------------------------------|
2|------------------------------------------------|
3|--14p12----14p12----14p12----14p12-----14br-----|
4|--------14-------14-------14-------14--------14-|
5|------------------------------------------------|
6|------------------------------------------------|

the solo backings:
1|----------------------|
2|----------------------|
3|----------------------|repeat this , and at the end
4|----------------------|of solo play g5 2x
5|-2----7br---7----2----|
6|-0----5br---5----0----|


then this riff comes in heavy!!
1|----------------|----------------------|
2|----------------|----------------------|
3|o--------------o|----------------------|2x
4|o--------------o|----------------------|
5|-2---------5-5--|--2---------5--4--3---|
6|-0---3bp0--3-3--|--0---3bp0--3--2--1---|
3x /

then the 2nd time kirk plays this along:
1|----------------|----------------------|
2|----------------|----------------------|
3|o----9br-------o|------9br-------------|w wah
4|o--------------o|----------------------|
5|-----7br---5-5--|------7br---5--4--3---|
6|-0---------3-3--|--0---------3--2--1---|
3x /

then a heavyer chorus comes , now play the nh. part.
play the clean part and play these extra parts.
1|------------------------------------------------|
2|------------------------------------------------|
3|------------------------------------------------|
4|-----------------------4--5--------4--2---------|
5|-2---------4--5--------2--3--3-3-3-2--0-0-0-----|
6|-0--0-0-0--2--3--3-3-3----------------------3-2-|

this is played by james.
1|------------------------------------------------|
2|------------------------------------------------|
3|------------------------------------------7--9--|
4|-----------------------4--5--------4--7---------|
5|-2---------4--5--------2--3--3-3-3-2--5---5--7--|
6|-0--0-0-0--2--3--3-3-3--------------------------|

then kirk plays with wah wah :
1|-------------------------|
2|-------------------------|
3|--6/9-9-9--9-9--9-9--9---|7x with rhythm
4|-------------------------|variations.
5|--6/7-7-7--7-7--7-7--7---|
6|-------------------------|
then:
1|-------------------------|
2|-------------------------|
3|-12-12-12-12/14-14-14-14-|
4|-------------------------|
5|-10-10-10-10/12-12-12-12-|
6|-------------------------|

then the outtro is the main riff.

tabed by drew.s ......enjoy it took a wile



Related Metallica Tabs

The God That Failed tabs
The unnamed feeling tabs
The Unforgiven tabs
Orion Btab tabs
Master Of Pupets tabs
Blues Jam tabs
Unforgiven Ii tabs
Were A Happy Family tabs
Sweet Amber Bass tabs
Helpless tabs
Too Late Too Late tabs
My Eyes tabs
Seek And Destroy Intro tabs
Purify Bass tabs
The Unforgiven 2 tabs
Memory Remains tabs
Phantom Lord tabs
Guitar And Bass Doodle (Cunning Stunts) tabs
Turn The Page tabs
Today Your Love tabs


Guitar Tabs




All tabs are property and copyright of their owners. All tabs provided for educational purposes only. Privacy Policy, DMCA, Links