Metallica

Holier Than Thou Bass Tabs



More from Metallica

Metallica Tabs
Metallica Chords
Metallica Bass
Metallica Lyrics

Metallica
Holier Than Thou
written by Hetfield and Ulrich
as performed on Metallica
tab by Travis Higgins


Play 1st bar 23 times (fun!)
G|-------------------------------|
D|-------------------------------|
A|--7--------------------------7-|
E|--0--0--0--0--0--0--0--0--0--0-|


G|---------------------------|---------------------------|---------------------------|
D|---------------------------|---------------------------|---------------------------|
A|--(7)--0--1-----0--1-------|-------0--1-----0--1-------|-------0--1-----0--1-------|
E|--(0)--------3--------3--0-|--(0)--------3--------3--0-|--(0)--------3--------3--0-|


G|-------------------------|-------------------------|-------------------------|-------------------------|
D|-------------------------|-------------------------|-------------------------|-------------------------|
A|-----0--1-----0--1-------|-----0--1-----0--1-------|-----0--1-----0--1-------|-----0--1-----0--1-------|
E|--0--------3--------3--0-|--0--------3--------3--0-|--0--------3--------3--0-|--0--------3--------3--0-|


G|-------------------------|---------------------------|------------|---------------------------||
D|-------------------------|---------------------------|------------|---------------------------||
A|-----0--1-----0--1-------|-------0--1-----0--1-------|------------|-------0--1-----0--1-------||
E|--0--------3--------3--0-|--(0)--------3--------3--0-|--(0)-------|--(0)--------3--------3--0-||


Verses 1 and 2 (repeat this + chorus)
G|-------------------------|-------------------------|-------------------------|
D|-------------------------|-------------------------|-------------------------|
A|-------------------------|-------------------------|-------------------------|
E|--3--3--3--3--3--3--3--3-|--3--3--3--3--3--3--0--0-|--0--0--0--0--0--0--0--0-|


G|-------------------------|-------------------------|-------------------------|
D|-------------------------|-------------------------|-------------------------|
A|-------------------------|-------------------------|-------------------------|
E|--0--0--0--0--0--0--3--3-|--3--3--3--3--3--3--3--3-|--3--3--3--3--3--3--0--0-|


G|-------------------------|-------------------------|------------------------------|
D|-------------------------|-------------------------|------------------------------|
A|-------------------------|-----------------------1-|-(1)--1--1--1--0(h)1--0-------|
E|--0--0--0--0--0--0--0--0-|--0--0--0--0--0--0--0----|-------------------------3--0-|


G|---------------------------------|---------------------------------|------------------------|
D|---------------------------------|---------------------------------|------------------------|
A|-------------------------------7-|--(7)--------------------------7-|--(7)--0--1-----0--1----|
E|--(0)--0--0--0--0--0--0--0--0--0-|--(0)--0--0--0--0--0--0--0--0--0-|--(0)--------3--------3-|


G|-------------------------|-------------------------|-------------------------|
D|-------------------------|-------------------------|-------------------------|
A|-------------------------|-------------------------|-------------------------|
E|--3--3--3--3--3--3--3--3-|--3--3--3--3--3--3--0--0-|--0--0--0--0--0--0--0--0-|


G|-------------------------|-------------------------|-------------------------|
D|-------------------------|-------------------------|-------------------------|
A|-------------------------|-------------------------|-------------------------|
E|--0--0--0--0--0--0--3--3-|--3--3--3--3--3--3--3--3-|--3--3--3--3--3--3--0--0-|


G|-------------------------|-------------------------|------------------------------||
D|-------------------------|-------------------------|------------------------------||
A|-------------------------|-----------------------1-|-(1)--1--1--1--0(h)1--0-------||
E|--0--0--0--0--0--0--0--0-|--0--0--0--0--0--0--0----|-------------------------3--0-||


Chorus
G|---------------------------|------------------------|-------------------------|
D|---------------------------|------------------------|-------------------------|
A|-------0--1-----0--1-------|-------0--1-----0--1----|-----0--1-----0--1-------|
E|--(0)--------3--------3--0-|--(0)--------3--------3-|--0--------3--------3--0-|


G|---------------------------|---------------------------|------------------------|
D|---------------------------|---------------------------|------------------------|
A|-------0--1-----0--1-------|-------0--1-----0--1-------|-------0--1-----0--1----|
E|--(0)--------3--------3--0-|--(0)--------3--------3--0-|--(0)--------3--------3-|


G|-------------------------|---------------------------|---------------------------------|
D|-------------------------|---------------------------|---------------------------------|
A|-----0--1-----0--1-------|-------0--1-----0--1-----7-|--(7)--------------------------7-|
E|--0--------3--------3--0-|--(0)--------3--------3--0-|--(0)--0--0--0--0--0--0--0--0--0-|


G|---------------------------------|---------------------------------|
D|---------------------------------|---------------------------------|
A|--(7)--------------------------7-|--(7)--------------------------7-|
E|--(0)--0--0--0--0--0--0--0--0--0-|--(0)--0--0--0--0--0--0--0--0--0-|


1____________________________________________________________
G|------------------------|----------|------------------------|
D|------------------------|----------|------------------------|
A|--(7)--0--1-----0--1----|----------|-------0--1-----0--1----|
E|--(0)--------3--------0-|--(0)-----|--(0)--------3--------3-|


2_____________________
G|--------------------------|-------------|--------------------||
D|--------------------------|-------------|--------------------||
A|--(7)----0--1-----0--1----|-------------|--------------------||
E|--(0)----------3--------0-|--(0)------3-|--(3)-------2--1--0-||



Interlude
G|---------------------------|---------------------------|---------------------------|---------------------------|
D|---------------------------|---------------------------|---------------------------|---------------------------|
A|---------------------------|----------------1--0-------|---------------------------|----------------1--0-------|
E|--(0)--0--0--0--0--0--0--0-|--(0)--0--0--0--------3--0-|--(0)--0--0--0--0--0--0--0-|--(0)--0--0--0--------3--0-|


G|---------------------------|---------------------------|---------------|
D|---------------------------|---------------------------|---------------|
A|---------------------------|------------------1--0-----|---------------|
E|--(0)--0--0--0--0--0--0--0-|--(0)--0--0--0--------3--1-|--(1)--1--1--0-|


G|---------------------------|---------------------------|---------------|
D|---------------------------|---------------------------|---------------|
A|---------------------------|------------------1--0-----|---------------|
E|--(0)--0--0--0--0--0--0--0-|--(0)--0--0--0--------3--1-|--(1)--1--1--0-|


G|---------------------------|---------------------------|---------------------------|
D|---------------------------|---------------------------|---------------------------|
A|---------------------------|----------------1--0-------|---------------------------|
E|--(0)--0--0--0--0--0--0--0-|--(0)--0--0--0--------3--1-|--(1)--1--1--2-----2--2--3-|


G|---------------|---------------------------------|---------------------------------||
D|---------------|---------------------------------|---------------------------------||
A|---------------|---------------------------------|---------------------------------||
E|--(3)--3--3--4-|--(4)--4--4--4--4--4--4--4--4--4-|--(4)--4--4--4--4--4--4--4--4--0-||


Guitar Solo
G|---------------------------------|---------------------------|----------------------------------|
D|---------------------------------|---------------------------|----------------------------------|
A|---------------------------------|---------------------------|----------------------------------|
E|--(0)--0--0--0--0--0--0--0--0--3-|--(3)--0--0--0--0--0--5--6-|--0--0--0--0--0--0--0--0--0--0--3-|


G|---------------------------|---------------------------------|---------------------------|
D|---------------------------|---------------------------------|---------------------------|
A|---------------------------|---------------------------------|---------------------------|
E|--(3)--0--0--0--0--0--5--6-|--(0)--0--0--0--0--0--0--0--0--3-|--(3)--0--0--0--0--0--5--6-|


G|---------------------------|---------------------------------|---------------------------|
D|---------------------------|---------------------------------|---------------------------|
A|---------------------------|---------------------------------|---------------------------|
E|--(3)--0--0--0--0--0--5--6-|--(0)--0--0--0--0--0--0--0--0--3-|--(3)--0--0--0--0--0--5--6-|


G|---------------------------|---------------------------------|------------------------|
D|---------------------------|---------------------------------|------------------------|
A|---------------------------|---------------------------------|-------0--1-----0--1----|
E|--(3)--0--0--0--0--0--5--6-|--(0)--0--0--0--0--0--0--0--0--3-|--(3)--------3--------3-|


G|-------------------------|-------------------------|------------------------|------------------------|
D|-------------------------|-------------------------|------------------------|------------------------|
A|-------------------------|-------------------------|------------------------|-------0--1-----0--1----|
E|--3--3--3--3--3--3--3--3-|--3--3--3--3--3--3--0--0-|--0--0--0--0--0--0--12-|--(0)--------3--------3-|


G|-------------------------|-------------------------|-------------------------------|---------------------------------|
D|-------------------------|-------------------------|-------------------------------|---------------------------------|
A|-------------------------|-----------------------1-|--(1)--1--1--1--0(h)1--0-----7-|--(7)--------------------------7-|
E|--3--3--3--3--3--3--3--3-|--3--3--3--3--3--3--3----|--------------------------3--0-|--(0)--0--0--0--0--0--0--0--0--0-|


G|---------------------------------|---------------------------------|------------------------||
D|---------------------------------|---------------------------------|------------------------||
A|--(7)--------------------------7-|--(7)--------------------------7-|--(7)-------------------||
E|--(0)--0--0--0--0--0--0--0--0--0-|--(0)--0--0--0--0--0--0--0--0--0-|--(0)--0--0--0--12---0-||



Outro (Guitars tacet)
G|---------------------------|------------------------|-------------------------|
D|---------------------------|------------------------|-------------------------|
A|-------0--1-----0--1-------|-------0--1-----0--1----|-----0--1-----0--1-------|
E|--(0)--------3--------3--0-|--(0)--------3--------3-|--0--------3--------3--0-|


(Guitars in)
G|------------------------|-------------------------|------------------------|
D|------------------------|-------------------------|------------------------|
A|-------0--1-----0--1----|-----0--1-----0--1-------|-------0--1-----0--1----|
E|--(0)--------3--------3-|--0--------3--------3--0-|--(0)--------3--------3-|


G|-------------------------|------------------------|-------------------------|
D|-------------------------|------------------------|-------------------------|
A|-----0--1-----0--1-------|-------0--1-----0--1----|-----0--1-----0--1-------|
E|--0--------3--------3--0-|--(0)--------3--------3-|--0--------3--------3--0-|


G|------------------------|-------------------------|---------------------------|
D|------------------------|-------------------------|---------------------------|
A|-------0--1-----0--1----|-----0--1-----0--1-------|-----0--1-----0--1---------|
E|--(0)--------3--------3-|--0--------3--------3--0-|--(0)--------3--------3--0-|


G|---------------------------|------------------------|-------------------------|
D|---------------------------|------------------------|-------------------------|
A|-----0--1-----0--1---------|-------0--1-----0--1----|-----0--1-----0--1-------|
E|--(0)--------3--------3--0-|--(0)--------3--------3-|--0--------3--------3--0-|


G|---------------------------|---------------------------------|---------------------------------|
D|---------------------------|---------------------------------|---------------------------------|
A|-----0--1-----0--1-------7-|--(7)--------------------------7-|--(7)--------------------------7-|
E|--(0)--------3--------3--0-|--(0)--0--0--0--0--0--0--0--0--0-|--(0)--0--0--0--0--0--0--0--0--0-|


G|---------------------------------|------------------------|-------------------|
D|---------------------------------|------------------------|-------------------|
A|--(7)--------------------------7-|--(7)--0--1-----0--1----|-------------------|
E|--(0)--0--0--0--0--0--0--0--0--0-|--(0)--------3--------0-|--(0)--0----0----0-|



G|------------------------|-------------------|----------------------||
D|------------------------|-------------------|----------------------||
A|-------0--1-----0--1----|-------------------|-------0--1-----------||
E|--(0)--------3--------3-|--(3)--3----3----3-|--(3)--------0--0-----||



Related Metallica Bass Tabs

Of wolf and man bass
Cliff Burton Memorial R.i.p bass
Enter Sandman Main Riff bass
Devils Dance bass
"the Unforgiven" Intro (perfect) bass
James Hetfield Locker Room Song bass
Fixxxer bass
The Frayed Ends Of Sanity bass
Nothing Else Matters bass
Fade To Black (revised Version) bass
Unforgiven 2 bass
Cure bass
Dirty Window bass
Crash Course In Brain Surgery bass
Free Speach For The Dumb bass
Attitude bass
Fuel bass
Cunning Stunts: Bass/guitar Doodle bass
Last Caress bass
Nothing else matters s m bass


Guitar Tabs




All tabs are property and copyright of their owners. All tabs provided for educational purposes only. Privacy Policy, DMCA, Links