Metallica

Harvester Of Sorrow Bass Tabs



More from Metallica

Metallica Tabs
Metallica Chords
Metallica Bass
Metallica Lyrics

------------------------------------------------------------------------------
HARVESTER OF SORROW - Metallica
------------------------------------------------------------------------------
There wasn't a good tab for this great song, so I made one.
This is 100% perfect, I know this for a fact.
INTRO
G|-----------------|---------------------------|-----------------------------|
D|-----------------|---------------------------|---------hold-through--------|
A|-------2-1-0-----|-----------------2-1-0-----|----------clean-gtr-intro----|
E|-3-2-0-------3-2-|-0---------3-2-0-------3-2-|-0---------------------------|
INTRO 2 repeat 3x
G|-------------|----------------|-------------|----------------------|
D|o------------|---------0---0-o|-------------|----------------------|
A|o.-----.-----|-.-----0-------o|-.-----.-----|-.----------2-1-0-----|
E|-0-----0-----|-0----3----1----|-0-----0-----|-0----3-2-0-------3-2-|
G|-------------------------------|-------------------------------|
D|o------------------------------|------------------------------o|
A|o--------------------2p1-------|---------------------2p1------o|
E|-0--0-0-0--0-0-3p2-0-----0-3p2-|-1--1-1-1--1-1-3p2-0-----0-3p2-|
G|-------------------------------|-------------------------------|
D|-------------------------------|-------------------------------|
A|---------------------2p1-------|-------------------------------|
E|-0--0-0-0--0-0-3p2-0-----0-3p2-|-1--1-1-1--1-1-3-2-0-5-5-5-5-3-|
G|-------------------------------|-------------------------------|
D|-------------------------------|-------------------------------|
A|-------------------------------|-------------------------------|
E|-0-----------------------------|-(0)---------------------------|
G|---------------|---------------|--------------------|--------------------|
D|---------------|---------------|--------------------|--------------------|
A|-----rest------|---------------|---1----------------|---1----------------|
E|---------------|-----------0-1-|-2---0-0----0-0-0-1-|-2---0-0----0-0-0-1-|
G|--------------------|--------------------|
D|o-------------------|---0---------------o|
A|o--1----------------|-------------------o|
E|-2---0-0----0-0-0-1-|-2---3-3----3-3-0-1-|
VERSE
G|-----------------|-----------------|-----------------|-----------------|
D|o----------------|-----------------|-----------------|-----------------|
A|o----------------|-----------------|-----------------|-----------------|
E|-2-0--0--0-0-0-1-|-2-0--0--0-0-0-1-|-2-0--0--0-0-0-1-|-2-3--3--3-3-0-1-|
BRIDGE
G|-------------------|-----------------|-----------------|-----------------|
D|-------------------|-----------------|-----------------|-----------------|
A|-------------------|-----------------|-----------------|-----------------|
E|-2-0--0-1-2-0--0-1-|-2-0--0--0-0-0-1-|-2-0--0--0-0-0-1-|-2-3--3--3-3-0-1-|
G|---------------|-------------------|-----------------|---------------------|
D|---------------|-------------------|-----------------|---------------------|
A|---------------|-------------------|-----------------|---------------------|
E|-0---------0-1-|-2-0--0-1-2-0--0-1-|-2-0--0--0-0-0-2-|-0-------------------|
G|--------------------------------|--------------------------------|
D|--------------------------------|--------------------------------|
A|----------------------2p1-------|----------------------2-1-0-----|
E|-0--0-0-0--0-0--3p2-0-----0-3p2-|-1--1-1-1--1-1--3-2-0-------3-2-|
CHORUS
G|--------------------------------|--------------------------------|
D|--------------------------------|--------------------------------|
A|----------------------2p1-------|----------------------2p1-------|
E|-0--0-0-0--0-0--3p2-0-----0-3p2-|-1--1-1-1--1-1--3p2-0-----0-3p2-|
G|--------------------------------|--------------------------------|
D|--------------------------------|--------------------------------|
A|----------------------2p1-------|--------------------------------|
E|-0--0-0-0--0-0--3p2-0-----0-3p2-|-1--1-1-1--1-1--3-2-0-5-5-5-5-3-|
_______________________________________________________
|1. repeat 2x
G|---------------|------------------|-------------------|
D|---------------|------------------|------------------o|
A|---------------|------------------|---1--------------o|
E|-0-------------|-(0)-------1--0-1-|-2---0-0---0-0-0-1-|
__________________________________________________________
|2.
G|--------------|-----------|---------|--------------------|
D|--------------|-----------|---------|--------------------|
A|--------------|-----------|---------|--------------------|
E|-0------------|-0---------|-0-------|-(0)---------1--0-1-|
SOLO
G|-------------------|-----------------|-------------------|
D|-------------------|-----------------|-------------------|
A|-------------------|-----------------|-------------------|
E|-2-0--0-1-2-0--0-1-|-2-0--0--0-0-0-1-|-2-0--0-1-2-0--0-1-|
G|-----------------|-------------------|-----------------|--------------------|
D|-----------------|-------------------|-----------------|--------------------|
A|-----------------|-------------------|-----------------|--------------------|
E|-2-3--3--3-3-0-1-|-2-0--0-1-2-0--0-1-|-2-0--0--0-0-0-1-|-0------------------|
INTERLUDE
G|----------------|-------------------|--------------------------------|
D|----------------|-------------------|--------------------------------|
A|----------------|-------------7-7-7-|----------------------2p1-------|
E|------------0-2-|-0-0-0-0-0-0-------|-0--0-0-0--0-0--3p2-0-----0-3p2-|
G|----------------|--------------------------------|-----------------------|
D|----------------|--------------------------------|-----------------------|
A|--------rest----|----------------------2p1-------|-----------------------|
E|-0--------------|-1--1-1-1--1-1--3p2-0-----0-3p2-|-0-------0--0-0-0--0-0-|
G|----------------------|----------------------|---------------------|
D|o---------------------|----------------------|--------------------o|
A|o---------------------|----------------------|--------------------o|
E|-0------1--1-1-1--1-1-|-0------0--0-0-0--0-0-|-0---------0-1-0-0-1-|
G|-------------|--------------------|--------------------------|
D|-------------|--------------------|--------------------------|
A|-------------|--------------------|--------------------------|
E|-0-----------|-(0)------0-1-0-0-1-|----------------0-1-0-0-1-|
3RD VERSE
G|----------------|-----------------|-----------------|-----------------|
D|----------------|-----------------|-----------------|-----------------|
A|----------------|-----------------|-----------------|-----------------|
E|---0-0--0-0-0-1-|-2-0--0--0-0-0-1-|-2-0--0--0-0-0-1-|-2-3--3--3-3-0-1-|
G|----------------|-----------------|--------------------------------|
D|----------------|-----------------|--------------------------------|
A|----------------|-----------------|----------------------2p1-------|
E|-0--------------|-(0)-------------|-0--0-0-0--0-0--3p2-0-----0-3p2-|
G|--------------------------------|
D|--------------------------------|
A|----------------------2-1-0-----|
E|-1--1-1-1--1-1--3-2-0-------3-2-|
FINAL CHORUS/OUTRO
G|--------------------------------|--------------------------------|
D|o-------------------------------|-------------------------------o|
A|o---------------------2p1-------|----------------------2p1------o|
E|-0--0-0-0--0-0--3p2-0-----0-3p2-|-1--1-1-1--1-1--3p2-0-----0-3p2-|
repeat 10x
G|--------------------------------|-------------------------------||
D|o------------------------------o|-------------------------------||
A|o---------------------2p1------o|-------------------rest--------||
E|-0--0-0-0--0-0--3p2-0-----0-3p2-|-0--0-0-0--0-0-----------------||
LYRICS
======
1. My life suffocates,
Planting the seeds of hate.
I've loved turned to hate,
Trapped far beyond my fate.
I give, you take, this life that I forsake.
Been cheated of my youth, you turned this lie to truth.
Anger, misery, you'll suffer unto me.
Harvester of sorrow (language of the mad)
Harvester of sorrow
2. Pure black looking clear,
My work is done soon here.
Try getting back to me,
Get back what used to be.
Drink up, shoot in, let the beatings begin.
Distributor of pain, your loss becomes my gain.
Anger, misery, you'll suffer unto me.
Harvester of sorrow (language of the mad)
Harvester of sorrow
3. All have said their prayers,
Invade their nightmares.
To see into my eyes,
You find where murder lies.
Infanticide.
Harvester of sorrow (language of the mad)
Harvester of sorrow (language of the mad)
Harvester of sorrow...



Related Metallica Bass Tabs

Metal Miltia. bass
Master Of Puppets (album) bass
Holier Than Thou bass
Bass Guitar Doodle bass
Dyers Eve bass
Anethesia bass
Fuel bass
Fight Fire With Fire bass
Master Of Puppets bass
Mercyful Fate Medley bass
Mexico City Bass Solo bass
One bass
Killing Time bass
Its Electric bass
Of wolf and man bass
Friend Of Mysery bass
One (guitar Intro) bass
Bass Solo Seattle 1989 bass
Live Shit bass
Bleeding Me bass


Guitar Tabs




All tabs are property and copyright of their owners. All tabs provided for educational purposes only. Privacy Policy, DMCA, Links