Metallica

Garage Inc Album Tabs



More from Metallica

Metallica Tabs
Metallica Chords
Metallica Bass
Metallica Lyrics



.-/ ~=-._
.-~ / ____ ______ __ _ _ _ ____| ~-._
~~/ -~|| __||_ __// || | | | | | / __/| .~~
/ . . || __| | | / ' || |__| |__ | || (__ |
/ / ~| ||____| |_| /_/|_||____|____||_| ___| |
/ / |-~ ~-|
/ /__ "The Garage Inc." TAB Book __
/ .-~ Compiled by ~-.
/.-~ Andrew Bowie ~-.
/~ Version 2.0 ~

Last Updated : 4th December 1998
Email for corrections : bowie@yoyo.cc.monash.edu.au or rb@mlode.com
Web Page for latest version : http://www.mlode.com/~rb/metallica/

This book was updated to include the tunes from the Garage Inc. album
which was released in 1998.

This book contains all the covers that Metallica have done over the years.
They were released in various forms, either on the Creeping Death single,
as the Garage Days Re-Revisited EP or on other newer singles. Enjoy!
They are all now on the Garage Inc. album.

------------------------------------------------------------------------------
------------------------- MetallicA ----------------------------------

Contents..

1. Free Speech For the Dumb : Phil Boyle
2. It's Electric : Phil Boyle
3. Sabbra Cadabra : Phil Boyle
4. Turn the Page : Phil Boyle
5. Die, Die My Darling : Phil Boyle, Brad Ryder
6. Loverman : Phil Boyle
7. Mercyful Fate : Phil Boyle
8. Astronomy : Phil Boyle, Jon Franco, and Ville Loukonen
9. Whiskey in the Jar : Phil Boyle, Flavio
10. Tuesday's Gone : Phil Boyle
11. The More I See : Phil Boyle


1. Helpless : Unknown :(
2. The Small Hours : RoY (nancy.henry@gbd.com)
3. The Wait : Legion
4. Crash Course In Brain Surgury : Travis Fitch
5. Last Caress : Unknown :(
6. Green Hell : Paul Halvorson
7. Blitzkrieg : Jeff Jacobson and Vassilis Tzerpos
8. Am I Evil? : Jon Kendrew (am2el@herts.ac.uk)
9. Breadfan : Tim (tscott@plains.nodak.edu)
10. The Prince : Fredrik Staaf
11. Killing Time : Rafael Dylong
12. Stone Cold Crazy : Howard Wright (spxhaw@uk.ac.cf.thor)
13. So What! : Rafael Dylong
14. Overkill : Phil Boyle
15. Damage Case : Vladimir Lapotkin and Phil Boyle
16. Stone Dead Forever : Phil Boyle
17. Too Late Too Late : Phil Boyle

---------
Where are the songs found???
GARAGE INC.!!
For Disc II:
1-6 = Garage Days Re-Revisited $5.95 EP
7-8 = Creeping Death single
9 = Japanese Pressing of "One"
10 = Japanese Pressing of "...And Justice For All"
11 = Most "Unforgiven" singles
12 = Most "Enter Sandman" singles
13 = "Sad But True" Single....
---------
------------------------- MetallicA ----------------------------------
Free Speech for the Dumb
------------------------
originally performed by Discharge
as performed by Metallica on Garage Inc.,
tab by Phil Boyle; phil@encycmet.com


Tune all guitars down 1 & 1/2 steps (3 half steps) down
low to high C#, F#, B, E, G#, c#

1)
B---2-2-2-2-2-2-2-2-2-2-2-2-2-2-2-5
F#--2-2-2-2-2-2-2-2-2-2-2-2-2-2-2-5
C#--0-0-0-0-0-0-0-0-0-0-0-0-0-0-0-3

yep, that's it just one riff.

------------------------- MetallicA ----------------------------------
It's Electric
-------------
originally performed by Diamond Head
as performed by Metallica on Garage Inc.,
tab by Phil Boyle; phil@encycmet.com


tune all guitars down 1/2 step
1)
Db---------------
Ab--9-7---7------
Eb------9---9-7-5


2)
Gb------------------------------------------------------
Db----------2-----2-----2-4-4----------2-----2-----2-4-4
Ab--4-4-----0-----0-----0-2-2--4-4-----0-----0-----0-2-2
Eb--2-2-2-2---2-2---2-2--------2-2-2-2---2-2---2-2------
pm.. ... ... ... ... ...

3)
Gb------------------------------
Db--4-4-4-----9-----------------
Ab--2-2-2---9-7-9--9-7---7------
Eb----------7---7------9---9-7-5


4)
Gb-------x-x--2----x-x
Db--2-4--x-x--2-4--x-x
Ab--2-4--x-x--0-4--x-x
Eb--0-2--x-x----2--x-x
"Gonna be a rock and roll star"


5)
Db--9-9-9-9-8-8-8-8-7-7-7-7-6-6-6-6
Ab--9-9-9-9-8-8-8-8-7-7-7-7-6-6-6-6
Eb--7-7-7-7-6-6-6-6-5-5-5-5-4-4-4-4
mid-solo


6)
Db--4--2--4--2--2-3-4---4
Ab--2--0--4--2--2-3-4---4
Eb--------2--0--0-1-2---2
end of solo

------------------------- MetallicA ----------------------------------
Sabbra Cadabra
--------------
originally performed by Black Sabbath
as performed by Metallica on Garage Inc.,
tab by Phil Boyle; phil@encycmet.com


(riffs 8 through 12) are from "A National Acrobat" also by Black Sabbath

tune all guitars down 1 full step
1)
d------------------------------------------------------------
A------------------------------------------------------------
F--------7--------------7------------------------------------
C----7h9---9-9-9~~--7h9---9-9-9~~----7--------------7--------
G--9--------------9--------------7-9---9-7-5----7-9---9-7-5--
D--------------------------------------------7~~------------7
intro


2)
F--4---6---7---9----
C--4---6---7---9---7
G--2---4---5---7---7
D------------------5
played under riff 1)


3a) James
F--2--4-4--------------2--4-4----2---2----
C--2--4-4--------------2--4-4----2-5-2-4-2
G--0--2-2--------------0--2-2----0-5-0-4-2
D----------------------------------3---2-0

3b) Kirk
d------------------------------------------------------
A--10-12-12~~12p10----10-12-12~~10-10-10~~-------------
F------------------11---------------------11-9--11-9---
C---------------------------------------------------9-9
G------------------------------------------------------
D------------------------------------------------------


4)
F--2--4-4-----2--4-4--------2-2-----2--4-4
C--2--4-4-----2--4-4--------2-2-----2--4-4
G--0--2-2-----0--2-2-----2--0-0-----0--2-2
D------------------------3----------------
Feel so good, feel so fine


5a) Kirk
d-----0-------------2
A-----0-------------2
F--------------------
C--2--------------4--
G--2--------------4--
D--0--------------2--

5b) James
F-----9-97/9-9~~----11-1197/9/11/16
C--2--------------4-------------------
G--2--7-75/7-7~~-4--9--9-75/7/9-/14
D--0--------------2-------------------
"Someone to love me"

5c) James at 2:10 (instead of 5b)
F-----9-97/9-9~~----11-1197/9/11/4
C--2--------------4------------------
G--2--7-75/7-7~~-4--9--9-75/7/9-/2
D--0--------------2------------------


6a) Kirk?
d---------------------------
A---------------3p0------3p0
F-----------2--------2------
C-------------0--------0----
G------0-2------------------
D--0-3----------------------
with wah (this part is really jumbled together)

6b) James
F----------------------------------7------------------
C--9-7-----------9-7-----------------7-9--9-7---------
G------9-7-----------9-7-------7-9------------9-7-----
D----------10-9----------10-9---------------------10-9


7)
F--4-2-------7-6--4--2------
C--4-2--4-2--7-6--4--2--4--2
G--2-0--4-2--5-4--2--0--4--2
D-------2-0-------------2--0


8a) James
F----------------------------------2-0------------
C---------------------3-2~----------------2~3~2~3~
G--3h5-5-5--5-3h5-3h5------3h5-5-5-----3----------
D-------------------------------------------------

8b) Kirk
F---------------------2-0----------2-0------------
C--2h3-3-3--3-2h3-2h3------2h3-3-3-----2--2~3~2~3~
G-------------------------------------------------
D-------------------------------------------------


9)
F--7-------5----
C--7---3---5---5
G--5---3---3---5
D------1-------3
"I am the world that hides..."


10)
F--3---2--------
C--3---2---3---5
G--1---0---3---5
D----------1---3
"I've lived 1000 times..."


11)
F-------------------------------7--X-X
C-----------------3-2-----------7--X-X
G--3h5--5-3h5-3h5-----3-0-3h5---5--X-X
D----------------------------------X-X
"You gotta believe me"
one guitar with wah, one without


12)
F---------------------------------------------
C----------------------------------------7-7-7
G--5--3--------5--3--------5--7--8--7--7~7-7-7
D--------3--1--------3--1----------------5-5-5

------------------------- MetallicA ----------------------------------
Turn the Page
-------------
originally performed by Bob Seger
as performed by Metallica on Garage Inc.,
tab by Phil Boyle; phil@encycmet.com


tune all guitars down 1/2 step
1a) James
eb--0--0-0-0-0-0-0-0-------------0--0-0-0-0-0-0-0
Bb--0--0-0-0-0-0-0-0-------------0--0-0-0-0-0-0-0
Gb--0--0-0-0-0-0-0-0-------------0--0-0-0-0-0-0-0
Db--2--------2------------2------2--------2------
Ab--2--------------------------------------------
Eb--0-----------------0-3----0-------------------
intro (strummed chords mostly repeated on the higher strings))

1b) Kirk
eb--/15-14~~------------------------
Bb----------15-15~---12~------------
Gb----------------14----12-11~~-----
Db-----------------------------12-14
Ab----------------------------------
Eb----------------------------------


2a) James
Emin Dmaj Amaj Emin
eb--0----2----0-----0
Bb--0----3----2-----0
Gb--0----2----2-----0
Db--2----0----2-----2
Ab--2---------0-----2
Eb--0---------------0
clean verse (strummed chords)
"On a long and lonely highway"

2b) Kirk
eb------------------------------------
Bb------------------------------------
Gb------------------/12-11------------
Db--14-12~~~5-7~~~~~-------12-12~~~7-9
Ab------------------------------------
Eb------------------------------------


3)
eb--0-----------0---------------------------------------
Bb--0-----------0----7--7--7-8-8-7----2--2--2-3-3-2--2--
Gb--0-----------0--9-7--7--7-7-7-7--7-2--2--2-2-2-2--2--
Db--2--2--2-2-2-2--9-7--7--7-7-7-7--7-2--2--2-2-2-2--2-2
Ab--2--2--2-2-2-2--7-5--5--5-5-5-5--5-0--0--0-0-0-0--0-2
Eb--0--0--0-0-0-0--0-----------------------------------0
Crunch verse
The heavy chords have quite a bit of decoration (4ths especially).
but the basic chord progression is the same as the clean verse
There is the little fill from riff 1) in one of the verses too.


4a)
Gb--7---7--7-7--7-7-------------------
Db--7---7--7-7--7-7----2---2--2-2--2-2
Ab--5---5--5-5--5-5----2---2--2-2--2-2
Eb---------------------0---0--0-0--0-0
distorted
but here I am, on the road again

4b)
Gb--7---7--7-7--7-7----2---2--2-2--2-2
Db--7---7--7-7--7-7----2---2--2-2--2-2
Ab--5---5--5-5--5-5----0---0--0-0--0-0
Eb------------------------------------
here I go, playing the star again

4c)
Gb--5-5-5/7-7-7----
Db--5-5-5/7-7-7---2
Ab--3-3-3/5-5-5---2
Eb----------------0
there I go, turn the page


5) ^V
eb--------------- ------------------------
Bb--7~~---------- -5--5--7--5--7--10--7--9
Gb--7~~---------- 3 times -5--5--7--5--7--10--7--9
Db-------------9- -5--5--7--5--7--10--7--9
Ab---------5---7- ------------------------
Eb-----5-7---7--- ------------------------
pm....
with wah
...what she said

------------------------- MetallicA ----------------------------------
Die, Die, Die My Darling
-------------------------
written by The Misfits
as performed by Metallica on Garage Inc
tab by Brad Ryder and Phil Boyle;


Tune all guitars down 1/2 step
1)
eb------------------------------
Bb--4--4--4--4--4--4--4--4------
Gb--4--4--4--4--4--4--4--4--4--3
Db--4--4--4--4--4--4--4--4--5--4
Ab--2--2--2--2--2--2--2--2--5--4
Eb--------------------------3--2
"Die, die, die my darlin..."


2a) James
eb-----------------------------------------------------------
Bb-------4--4--4--4--4--4--4--4------------------------------
Gb--1----4--4--4--4--4--4--4--4----1-----4------------------4
Db--2----4--4--4--4--4--4--4--4----2-----5------------------5
Ab--2----2--2--2--2--2--2--2--2----2-----5------------------5
Eb--0------------------------------0-----3--3-3-3-3-3-3-3-3-3
"Oh, I'll be seeing you again..." pm-------------|

2b)
eb-----------------------------------------------------------
Bb------4----------------------------------------------------
Gb--1---4--4--4--4--4--4-4/64-----1-----4------------------4
Db--2---4--4--4--4--4--------------2-----5------------------5
Ab--2---2--2--2--2--2--2-2/42-----2-----5------------------5
Eb--0------------------------------0-----3--3-3-3-3-3-3-3-3-3


3)
eb--------------------------------------
Bb--4--4--4--4--4--4--4--4-------7--6--4
Gb--4--4--4--4--4--4--4--4--6----7--6--4
Db--4--4--4--4--4--4--4--4--5----7--6--4
Ab--2--2--2--2--2--2--2--2--5----5--4--2
Eb--------------------------3-----------
"Don't cry to me oh baby..."


4a) 4b)
eb---------------------- --14
Bb--12-12-12-12-12-12-12 ----
Gb---------------------- ----
Db---------------------- ----
Ab---------------------- ----
Eb---------------------- ----
Riff 4a goes through the entire song until the end where 4b rings out.

------------------------- MetallicA ----------------------------------
Loverman
----------
written by Nick Cave and the Bad Seeds
as performed by Metallica on Garage Inc
tab by Phil Boyle; phil@encycmet.com


tune all guitars down 1/2 step.
1)
eb--0--1--3
Bb--1--1--3
Gb--0--2--4
Db--2--3--5
Ab--3------
Eb---------
"There's a devil waiting outside your door"
clean
the bass chord progression is C F G, there are small guitar parts
along those lines, and a lot of little fills.


2)
Gb--5---10--12
Db--5---10--12
Ab--3---8---10
Eb------------
"Loverman"
crunch
same basic progression, Kirk plays the same (or similar) progression
with the wah in full force.


3)
eb--3h4p3----------1-3--1
Bb-----------1-3-4-------
Gb-----------------------
Db-----------------------
Ab-----------------------
Eb-----------------------
the spelling bee part
clean

------------------------- MetallicA ----------------------------------
Mercyful Fate
--------------
written by Mercyful Fate (medley written by Hetfield and Ulrich)
as performed by Metallica on Garage Inc
tab by Phil Boyle; phil@encycmet.com


tune all guitars down 1/2 step
1)
Gb------------------------------------------------------------
Db------4pX-----4pX-----4pX-----5------4pX-----4pX-----4pX-4-2
Ab---------------------------------------------------------2-0
Eb--0-2-----0-2-----0-2-----2~3~---0-2-----0-2-----0-2--------
intro of "Satan's Fall"
To get the 4pX part to sound right, I leave my index (1st) finger across
every string (but not fretting any notes except on the low E) like a regular
barre chord so it mutes the D string.


2)
Gb----------------------
Db--4-4-5-5--5--5--5-5-4
Ab--2-2-3-5--5--5--5-5-4
Eb--------3--3--3--3-3-2
"Bringing the blood"


3a)
Gb--2-------5-----2-----5---7-7~
Db--2-------5-----2-----5---7-7~
Ab--0-0-0-0---0-0-0-0-0---0-----
Eb------------------------------

3b)
Gb--2-------5-----2-----5---5-4
Db--2-------5-----2-----5---5-4
Ab--0-0-0-0---0-0---0-0---0----
Eb-----------------------------

3c)
Gb--2p0-2p0-5-2---2-----5---7-7~7p5---2-------5-------0-----0----
Db--2p0-2p0-5-2---2-----5---7-7~7p5---2-------5-----2-----0------
Ab--0-0-0-0---0-0-0-0-0---0---------7-0-0-0-0---0-3-----2-------2
Eb------------------------------------------------------------3--
intro to "Curse of the Pharaohs" (0:40)


4a)James
eb-------------------------------------
Bb-------------------------------------
Gb------7-5-2-----2-----4-5h7p5h7p5h7p5
Db------7-5-2-----2-----4--------------
Ab--0-0-----0-0-0-0-0-0----------------
Eb-------------------------------------
pm.. ... ...

4b)Kirk
eb-------------------------------------
Bb------------------------5h6p5h6p5h6p5
Gb------7-5-2-----2-----4--------------
Db------7-5-2-----2-----4--------------
Ab--0-0-----0-0-0-0-0-0----------------
Eb-------------------------------------
pm.. ... ...


5)
Gb----------------------------------------------------------
Db--4------------------------------------------------4-2-5-7
Ab--4------------------------------------------------4-2-5-7
Eb--2--2-2-2--2-2-2--2-2-2--2-2-2--2-2-2--2-2-2--2-2-2-0-3-5
pm............................................
"Crying out in Egypt..."


6)
Gb-----------------------------2-------------4----------------6
Db------4-2-5-6----------------2-------------4----------------6
Ab------4-2-5-6----------------0-0-0--0-0-0--2--2-2-2--2-2-2--4
Eb--2-2-2-0-3-4--4-4-4--4-4-4----------------------------------
"Don't touch steal unless kill"


7)
Gb--------2-------------2-----------2---------------2 ----9--8
Db--4-2-4-2-4-5-4-------2-2---4-2-4-2-4-7-6-------2-2 -2--9--8
Ab--4-2-4-0-4-3-2-3-2-0-0-2---4-2-4-0-4-5-4-5-4-2-2-0 -2--7--6
Eb--2-0-2---2-------------0---2-0-2---2-----------0-- -0------
"You've been hexed on you" (2nd time)


8)
Gb--------------------
Db--2-4--4-5--7-4--9-7
Ab--2-4--4-5--7-4--9-7

Eb--0-2--2-3--5-2--7-5
pre solo


9)
Gb---------------------------4-4-4
Db---------------------------4-4-4
Ab--4-4-4-4-4-4-4-4-4-4-4-4--2-2-2
Eb--------------------------------
pm......................
solo riff


10)
Gb--74--94--104--94 ----------------------
Db--74--94--104--94 twice ---74--94--104--94
Ab--52--72--8-2--72 ---74--94--104--94
Eb--------------------- ---52--72--8-2--72


11)
Gb--9--7--7-6-5-4------------------------------------------------4-2-5-7
Db--9--7--7-6-5-4------------------------------------------------4-2-5-7
Ab--7--5--5-4-3-2--2-2-2--2-2-2--2-2-2--2-2-2--2-2-2--2-2-2--2-2-2-0-3-5
Eb----------------------------------------------------------------------
pm............................................
right before going back into the verse (riff 5)


12)
Gb--5--4--5--7--4--5--3--4
Db--5--4--5--7--4--5--3--4
Ab--3--2--3--5--2--3--1--2
Eb------------------------


13a)
eb----------------------------------------------------------
Bb----------------------------------------------------------
Gb------------5--------7--7-5-7-5-------------5----------5--
Db------7p5---5--7p5---7--7-5-7-5-------7p5---5-7p5---5--5-5
Ab--0-0-----7--------7--------------0-0-----7-------7-5----5
Eb----------------------------------------------------------

13b)
eb--------------------------------------------------------------------------
Bb--------------------------------------------------------------------------
Gb------------5--------7--7-5-7-5---7p5---5------------------------------7-7
Db------7p5---5--7p5---7--7-5-7-5-------7---7p5-7p5---5------------------7-7
Ab--0-0-----7--------7------------------------------7---7p5-7p5---5------5-5
Eb--------------------------------------------------------------8---8p5-----
intro to "A Corpse Without Soul" (3:53)
It's all one riff, but after the first time, only 13a) is played.


14)
eb------------------------------------------------------------
Bb------------------------------------------------------------
Gb------------5---------------------------------5----------5--
Db------7p5---5----7p5------7p5-5---------7p5---5-7p5---5--5-5
Ab--0-0-----7---7-------0-0-----5-7---0-0-----7-------7-5----5
Eb------------------------------------------------------------
pm.. ...
"Listen.. yeah yeah.. I'm a corpse"


15)
Gb--7---7-5-4-5
Db--7---7-5-4-5
Ab--5---5-3-2-3
Eb-------------
"He took it on me"


16)
eb--------------------------------------------------
Bb--------------------------------------------------
Gb------------5--10--12-12~~----------5----------5--
Db------7p5---5--10--12-12~~----7p5---5-7p5---5--5-5
Ab--0-0-----7---------------0-0-----7-------7-5--3-5
Eb-------------------------------------------------3
pm.. ...

17)
Gb--7-5-4--5-4-2--4-2----2------2
Db--7-5-4--5-4-2--4-2-5--2-5-4--2
Ab--5-3-2--3-2-0--2-0-5--0-5-4--0
Eb--------------------3----3-2---


18a) Kirk
eb-----------8----8-7~~~8--12--10~~h12p10h12p10
Bb--10~~8-10---10------------------------------
Gb---------------------------------------------
Db---------------------------------------------
Ab---------------------------------------------
Eb---------------------------------------------

18b) James
Gb----------------------------------------7--5-7
Db--7-----7-----7-9-10-7-7-10-9-----9-----7--5-7
Ab--0-0-0-0-0-0-0-0-0--0-0-0--0-0-0-0-0-0----3-5
Eb----------------------------------------------
pm.. ... ... ...
intro to "Into the Coven" (5:23)
"Howl like a wolf..."


19)
Gb--10-7-7-7--7-8--10-7-7-7--7-8-9-10
Db--10-7-7-7--7-8--10-7-7-7--7-8-9-10
Ab--8--5-5-5--5-6--8--5-5-5--5-6-7-8-
Eb-----------------------------------


20a) 20b)
Gb------------------------------- -------------
Db------------------------------- -------------
Ab--4-----------------------5-5-4 ----0-2-3-4--
Eb--2-2-2-2-2-2-2-2-2-2-2-2-3-3-2 --2---------2
pm....................
"Yeah come come into my coven" (after the first coven)


21) 7:11
Gb--5-5-5--5-5--5-5-5------
Db--5-5-5--5-5--5-5-5-5-4-2
Ab--3-3-3--3-3--3-3-3-5-4-2
Eb--------------------3-2-0
intro to "Evil"


22)
Gb--9--9/129--9/129--9/129--9/12--7-9-7-9
Db--9--9/129--9/129--9/129--9/12--7-9-7-9
Ab--7--7/107--7/107--7/107--7/10--5-7-5-7
Eb-----------------------------------0-0--0-0
pm.......


23)
Gb--4----------------2-4-7-4
Db--4----------------2-4-7-4
Ab--2--2-2-2-2-2-2-2-0-2-5-2
Eb--------------------------
pm............
"I was born in a cemetary"


24)
Gb-------------------------
Db-------------------------
Ab------------------0-2-5-2
Eb--3-3-3-3-3-3-3-3--------
"Raised from my grave..."


25a)
Gb--------------------------------7-5----------------------------
Db--4-----------------------------7-5----------------------------
Ab--4-----------------------------5-3--3-3-3--3-3-3--3-3-3--3-3-3
Eb--2--2-2-2--2-2-2--2-2-2--2-2-2--------------------------------

25b)
Gb--4-2------------------------------4-5-6---------------------
Db--4-2------------------------------4-5-6---------------------
Ab--2-0--0-0-0--0-0-0--0-0-0--0-0-0--2-3-4--4-4-4--4-4-4--4-4-4
Eb-------------------------------------------------------------
"You know, my only pleasure..."


26)
Gb-------------------------------------
Db--7--7/107--7/107--7/107--5-7-5-7
Ab--7--7/107--7/107--7/107--5-7-5-7
Eb--5--5/8-5--5/8-5--5/8-5--3-5-3-5
mid-solo


27)
Gb--------------------------5-------------7--5----------
Db--7-7-5-7---7--5--5-5---3-5---7-7-5-7---7--5--5-5--3-3
Ab--7-7-5-7---5--3--5-5---3-3---7-7-5-7---5--3--5-5--3-3
Eb--5-5-3-5-0-------3-3-0-1-----5-5-3-5-0-------3-3--1-1
pm...... ... ...
"And when you're down..." (9:10)


28a) Kirk
Gb--------------------7--9--10-----
Db--3-3-----5---7-7-------------7-5
Ab--3-3-----3---7-7---5--7--8------
Eb--1-1---0---0-5-5----------------

28b) James
Gb--------------------7--5--3---7-5
Db--3-3-----5---7-7---7--5--3---7-5
Ab--3-3-----3---7-7---5--3--1---5-3
Eb--1-1---0---0-5-5----------------
"You gotta say goodbye"

29)
Gb--2--5----3----3----3-3---------------------
Db--2--5--3-3--3-3--3-3-3--8-6-8--8-6-8--8-6-8
Ab--0--5--3-1--3-1--3-1-1--8-6-8--8-6-8--8-6-8
Eb-----3--1----1----1------6-4-6--6-4-6--6-4-6
during the bass part


30)
Gb-----------------------------------------------
Db-------------------------------------------4--2
Ab--3-3-3-3-3-3-3-3-3-3-3-3-3-3-3-3-3-3-3-3--2--0
Eb-----------------------------------------------
solo

back to riff 1

------------------------- MetallicA ----------------------------------
Astronomy
----------
written by the Blue Oyster Cult
as performed by Metallica on Garage Inc
tab by Phil Boyle, Jon Franco, and Ville Loukonen; phil@encycmet.com


tune all guitars down 1/2 step
drum intro
1)
eb--0-0-0-0-0------
Bb--0-0-0-0-0-0----
Gb--0-0-0-0-0---2-0
Db--2---2---2------
Ab--2--------------
Eb--0--------------


2)
eb--0--2--0--2--0--
Bb--0--3--1--4--0--
Gb--0--2--0--4--0--
Db--2--0--2--4--2--
Ab--2-----3--2-----
Eb--0--------------
Clock strikes twelve


3)
eb--0--3--0--2
Bb--1--3--1--4
Gb--0--0--0--4
Db--2--0--2--4
Ab--3--2--3--2
Eb-----3------
Like something on a folding chair?


4a) James
eb------------------------------------------------------------
Bb------------------------------------------------------------
Gb------------------------------------------------------------
Db--9-7----7-------9-7----7-------9-7----7-------9-7----7-----
Ab------10---10-9~~----10---10-7~~----10---10-9~~----10---10-7
Eb------------------------------------------------------------

4b) Kirk
eb------------------------------------------------------------
Bb--5-----------------------------5---------------------------
Gb----7-5-7-5-5h7~~5-4----5----5~~--7-5-7-5-5h7~~5-4----5~~7~~
Db---------------------7----7------------------------7--------
Ab------------------------------------------------------------
Eb------------------------------------------------------------


5)
Gb--9------9-----9---5-5~-----7--7-7-7-7-7-7-7--9-9
Db--9------9-----9---5-5~-----7--7-7-7-7-7-7-7--9-9
Ab--7------7-----7---3-3~-----5--5-5-5-5-5-5-5--7-7
Eb--0--0-0-0-0-0-0-0------0-0-------------------0-0
pm.. ... . ... ... ...
"Call me casanova"


6)
Gb-7-5-7--7-5-7--7-5-7----
Db-7-5-7--7-5-7--7-5-7----
Ab-5-3-5--5-3-5--5-3-5----
Eb------------------------
"Never warms"


7)
eb--19-17----17----------------------------------------------------
Bb--------20----20-17--12-10----10---------------------------------
Gb---------------------------12----12-9----------------------------
Db---------------------------------------9-7----7------------------
Ab-------------------------------------------10---10-7--2-0---0----
Eb----------------------------------------------------------3---3-0
after never warms part


8a) Kirk
eb--15---------12------------------------------------12-14-12-14-15-17-19-17
Bb------13--15---------10-12-----10-12~~~~--12-13-15------------------------
Gb-----------------12---------12--------------------------------------------
Db--------------------------------------------------------------------------
Ab--------------------------------------------------------------------------
Eb--------------------------------------------------------------------------

8b) James *****************************
eb--15------------------------------------------------------------------
Bb-------------12-------------------------------------------------------
Gb------12--14---------11-12--------9~~~~~~-----------------------------

Db-----------------14---------10--9-------------------------------------
Ab-----------------------------------------7-7-6-6-5-5-4-3-2-2-3-3-4-5-6
Eb----------------------------------------------------------------------
*= similar to artificial harmonics, rest finger above the string while
picking and sliding down the neck before going into riff 5
pre solo

------------------------- MetallicA ----------------------------------
Whiskey in the Jar
------------------
adapted by Thin Lizzy
as performed by Metallica on Garage Inc
tab by Phil Boyle and Flavio; phil@encycmet.com


tune all guitars down 1 full step
1a) Kirk
d--------------------------------------------------------
A--------------------------------------------------------
F--4-3---------------4--4-4--4-4--4-4-3------------------
C--5-4-2--2-2--2-2---5--5-5--5-5--5-5-4--2--2-2--2-2--2-2
G--5-4-2--2-2--2-2---5--5-5--5-5--5-5-4--2--2-2--2-2--2-2
D------0--0-0--0-0-----------------------0--0-0--0-0--0-0

1b) James
d------------------------- --------------
A----------8---7---------- --------------
F--------7---7---7-9/12~~~ three times then --------------
C------------------------- ---5---4------
G------------------------- -5---5---5----
D------------------------- -----------7/3


2)
d-----------------------------------------------------------------------
A------------------------------------------5--5-5--5-5--5-5-------------
F--4-4--4-4--4-4--4-4--3-------------------5--5-5--5-5--5-5--4--4-4--4-4
C--5-5--5-5--5-5--5-5--4-2--2-2--2-2--2-2--5--5-5--5-5--5-5--5--5-5--5-5
G--5-5--5-5--5-5--5-5--4-2--2-2--2-2--2-2--------------------5--5-5--5-5
D------------------------0--0-0--0-0--0-0-------------------------------
"As I was walking over"


3a) James
d--5--5-5--5-5-4-3--3-3--3-3--3-3 --
A--7--7-7--7-7-6-5--5-5--5-5--5-5 --
F--7--7-7--7-7-6-5--5-5--5-5--5-5 twice -4
C--7--7-7--7-7-6-5--5-5--5-5--5-5 -5
G-------------------------------- -5
D-------------------------------- --

3b) Kirk (the arpeggio on C is played in time with James' part)
d--5-5-5-5-5-5-5-5--3---------------- -3
A--7-7-7-7-8-7-5-7--5-----5---6-----5 -3
F--7-7-7-7-7-7-7-7--5---5---5---5---- twuce -4
C--7-7-7-7-7-7-7-7--5-5-----------5-- -5
G--5-5-5-5-5-5-5-5--3---------------- -5
D------------------------------------ -3
"Sha rhem abaduba bla...there's whiskey in the Jar-o"


4)
d--3---0---0--3
A--3---0---1--3
F--0---0---0--0
C--0---2---2--0
G--2---2---3--2
D--3---0------3
"Well some men like a-fishin'"

------------------------- MetallicA ----------------------------------
Tuesday's Gone
---------------
written by Lynyrd Skynyrd
as performed by Metallica and friends on Garage Inc
tab by Phil Boyle; phil@encycmet.com


Accoustic performance;
tune all guitars down 1/2 step
1)
eb--0--0--2--3---0--0--2
Bb--2--0--2--2---2--0--3
Gb--2--1--2--3---2--1--2
Db--2--2--4--0---2--2--0
Ab--0--2--4------0--2---
Eb-----0--2---------0---
intro and verse
"Train rolls on, on down the line. Please take me far, far away."
Rhythm is strummed following this progression


2)
guitar 1 guitar 2
eb-...2-2-2-2--2-2-2-2--2-2-3-2--2-2-3-2 ------------------------------
Bb-...3-3-3-3--3-3-3-3--3-3-3-3--3-3-3-3 -5-3--5-3--5-3--5-3--2-3-2-0--
Gb-...2-2-2-2--2-2-2-2--2-2-2-2--2-2-2-2 -----------------------------2
Db-...0-0-0-0--0-0-0-0--0-0-0-0--0-0-0-0 ------------------------------
Ab-...---------------------------------- ------------------------------
Eb-...---------------------------------- ------------------------------
end of verse


3)
eb--0--3--2
Bb--2--0--3
Gb--2--0--2
Db--2--0--0
Ab--0--2---
Eb-----3---
chorus
"Tuesday's gone with the wind"


4a) ^ ^ ^ ^ ^ ^ ^ ^ ^
eb-------------------------------------------
Bb--2-3-2-0----------------------------------
Gb----------2---4-4-4-4~~-4-4-4-----4-4-4----
Db------------------------------2~~-------4~~
Ab-------------------------------------------
Eb-------------------------------------------
very "bendy"

4b) ^ ^ ^ ^ ^ ^ ^ ^ ^ ^
eb----------------------------------------------------
Bb-------------------------------------------2-3-2-0--
Gb------2-4-4~-4-4-4-4~~-4-4-4-----4-4-4-------------2
Db--2-4------------------------2~~-------4~~----------
Ab----------------------------------------------------
Eb----------------------------------------------------
still "bendy"

------------------------- MetallicA ----------------------------------
The More I See
---------------
written by Discharge
as performed by Metallica on Garage Inc
tab by Phil Boyle; phil@encycmet.com


tune all guitars down 1 1/2 steps (C# tuning)
low to high C#, F#, B, E, G#, c#
bass intro
1)
E--------------------------------2~
B----------------------------------
F#--2-2-2-2-2-2---2-2-2-2-2-2------
C#--0-0-0-0-0-0---0-0-0-0-0-0-*----
*=slide on C# string near the nut


2)
B----------------------------
F#--8-7-8-7-8-7--5-2---------
C#--6-5-6-5-6-5--3-0--0-0-0-0
From where I stand I see


3)
B-------------------------------------
F#--8------------------7--------------
C#--6-6-6-6-6-6-6-6-6--5-5-5-5-5-5-5-5
The less I believe


4)
B---------------------------------------------
F#--8----------------------2------------------
C#--6-6-6-6-6-6-6-6-6-6-6--0-0-0-0-0-0-0-0-0-0


------------------------- MetallicA ----------------------------------
Helpless
--------

Rythmn Fig 1. Bridge into chorus

|| Hold These chords
A B F# Repeat|| A B F# D E F# D E F#
e|------------------------------||----------------------------------|
B|------------------------------||----------------------------------|
G|-2-4--(4)--------------------*||-2-4--(4)------7-9---11-7-9-------|
D|-2-4--(4)-----4-----4-----4--*||-2-4--(4)---4--7-9-4-11-7-9-4-----|
A|-0-2-0h2p0----4-----4-----4---||-0-2-0h2p0--4--5-7-4- 9-5-7-4-----|
E|------------2-2-0-2-2-0-2-2-0-||------------2------2--------2--2--|
|
|
Pick real Fast and alot

By this ( ) I mean hold the B chord with your ring finger and just perform the
hammer and pull-offs with your index finger. Repeat This rythmn figure until
you hit the bridge to the chorus. The Bridge into the chorus has a bunch of
power chords which are held. Listen to the tune and you'll get the picture....

Chorus (Lyrics go 'HELPLESS....!')

Part 1 Part 2 Part 3
A repeat 3x| A G | A G A
e|---------------------------------|------------------|-----------------
B|---------------------------------|------------------|-----------------
G|--------------------------------*|-----------------*|-----------------
D|------------------7p5---------5-*|-----------5-5-5-*|-----------5-5-7-
A|----------------------7-6-7-6----|-----------5-5-5--|-----------5-5-7-
E|--5-5-5-5-5-5-5-5----------------|-5-5-5-5-5-3-3-3--|-5-5-5-5-5-3-3-5-

By this I mean play Part 1 three times, then play Part 2. Then you play Part 1
three times again and finish the chorus with Part 3. Work with me on this
one... I'm not sure about the part 1 section... but this is close....

Now return to ryth. Fig 1 amd play it till you hit the chorus a second
time... do the chorus again and then play rythmn Fig 1 again until you hit the
little Newstead bass solo, after which you hit a second bridge. I prefer to
enter into this section with a jumping, banging pick slide. In other words I
bounce the pick off the low E, A and D while sliding the edge down the
fretboard... Anyway it sounds real cool...

Bridge 2

| >> > >> >> >> >> >>
o'. / o'. / / / / / / / / / / / / /
-----------|----------|------------------------------------------------------|
-----------|----------|------------------------------------------------------|
-----------|----------|*--------------------------------------------------0-*|
---------3-|-------3--|*-2-----x---2-----x---2-----x---2-----x---------3----*|
-----------|----------|--2-----x---2-----x---2-----x---2-----x------3--------|
p0------|--0-------|--0-----x---2-----x---2-----x---2-----x---1-----------|
^ P.M. ^^^^^^^^^^



Main:
>> >> >> >> > >> > >> > >> > >> >> >> >> >> >> >> >> >
/ / / / / / / / / / / / / / / / / / / /
------|--------------------------------------------------|------------------
------|--------------------------------------------------|------------------
------|*----------------------------------------------0--|------------------
---2--|*-2--x-----2----x--2----x--2----x--2--------3-----|--x--2--x-----2---
---2--|--2--x-----2----x--2----x--2----x--2-----3--------|--x--2--x-----2---
---0--|--0--x--3--0----x--0----x--0----x--0--1-----------|--x--0--x--3--0---
P.M.^^^^^^^^^^^^

>> >> >> >> >> >> >> >> >> >> >>
/ / / / / / / / / / /
-------------------------------------|
-------------------------------------| repeat several times.
------------------------------------*|
---x--2--x--2--x--2--3--3--3--3--3--*|
---x--2--x--2--x--2--3--3--3--3--3---|
---x--0--x--0--x--0--1--1--1--1--1---|
P.M.^^^^^^^^^^^^^

|Chorus (Gtr. 1) -- part 1:
|---------------------------------------------------------------------|
|---------------------------------------------------------------------|
|---2----------------4----------------5----------------10------------|
|---2----------------4----------------5----------------10------------|
|---0----------------2----------------3----------------8-------------|
|---------------------------------------------------------------------|
| |
|Chorus (Gtr. 2) -- part 1: |
|---------------------------------------------------------------------|
|---------------------------------------------------------------------|
|---2----------------4----------------5-------------------------------|
|---2----------------4----------------5----------------3--------------|
|---0----0--0-----0--2----2--2--0--2--3----3--3--2--0--3--------------|
|--------------3---------------------------------------1--------------|
P.M.^^^^^^^^^^ P.M.^^^^^^^^^^ P.M.^^^^^^^^^^

|Gtr 1 -- part 2:
|---------------------------------------------------------------------|
|---------------------------------------------------------------------|
|---2---------------4---------------5---------------------------------|
|---2---------------4---------------5-----------------3---------------|
|---0---------------2---------------3-----------------3---------------|
|-----------------------------------------------------1---------------|
|
|Gtr. 2:

|Both Gtrs -- part 3:
|---------------------------------------------------------------------|
|---------------------------------------------------------------------|
|---2---------------4---------------5------------------10------------|
|---2---------------4---------------5------------------10------------|
|---0---------------2---------------3------------------8-------------|
|---------------------------------------------------------------------|

Pre-solo:
|--------------------------------------------------------------------------|
|--------------------------------------------------------------------------|
|*---10---9----------------------10---9------14--13--------10---9------|
|*-----------------10---9-------------------------------------------------|
|----8----7----------------------8----7------12--11--------8----7------|
|------------------8----7-------------------------------------------------|
_____________________________________ ________________________________
1. / 2.
-----------------------------------------|-----------------------------------|
-----------------------------------------|-----------------------------------|
---10---9-------14--13-------17--16--*|--14--13-----17--16-----22--21--|
----------------------------------------*|-----------------------------------|
---8----7-------12--11-------15--14---|--12--11-----15--14-----20--19--|
-----------------------------------------|-----------------------------------|

Solo:

1.25 1.25 r.2 rhytm
eb:----------------|------------------|----------------|---------------|
Bb:----------------|------------------|----------------|---------------|
Gb:----------------|------------------|----------------|---------------|
Db:----------------|------------------|----------------|---------------|
Ab:----------------|------------7-----|--7-------7-----|--7-----7-7-7--|
Eb:----------------|------------5-----|--5-------5-----|--5-----5-5-5--|

eb:---------------|---------------|---------------|---------------|
Bb:---------------|---------------|---------------|---------------|
Gb:---------------|---------------|---------------|---------------|
Db:--2-----2------|--2-----2-7-7--|--2-----2------|--2-----2------|
Ab:--2-----2-5-5--|--2-----2-5-5--|--2-----2-5-5--|--2-----2-5-5--|
Eb:--0-----0-3-3--|--0-----0------|--0-----0-3-3--|--0-----0-3-3--|

eb:---------------|-----------------|--------------|
Bb:---------------|-----------------|--------------|
Gb:---------------|-----------------|--------------|
Db:---------------|-----------------|--------------|
Ab:--3-----5------|-XX7-XX7-XX7-XX7-|--3----5-5-5--|
Eb:--1-----3------|-XX5-XX5-XX5-XX5-|--1----3-3-3--|

5 VERSE
eb:-------------------------|-----------------------|------------------------|
Bb:-------------------------|-----------------------|------------------------|
Gb:-------------------------|-----------------------|------------------------|
Db:---12-10---------12--14--|--12-10----------------|--12-10---------12--14--|
Ab:---12-10--12-10--10--12--|--12-10--12-10--10-----|--12-10--12-10--10--12--|
Eb:-------------------------|-----------------8-----|------------------------|

eb:-----------------------|----------------|--------------------------|
Bb:-----------------------|----------------|--------------------------|
Gb:-----------------------|----------------|--------------------------|
Db:--12-10----------------|----------------|--------------------------|
Ab:--12-10--12-10--109---|--8-----10------|--XX12--XX12--XX12--XX12--|
Eb:-----------------87---|--6------8------|--XX10--XX10--XX10--XX10--|

eb:-----------------|
Bb:-----------------|
Gb:-----------------|
Db:-----------------|
Ab:--8----10-10-10--|
Eb:--6-----8--8--8--|

6 VERSE
eb:-------------------------|-----------------------|------------------------|
Bb:-------------------------|-----------------------|------------------------|
Gb:-------------------------|-----------------------|------------------------|
Db:---12-10---------12--14--|--12-10----------------|--12-10---------12--14--|
Ab:---12-10--12-10--10--12--|--12-10--12-10--10-----|--12-10--12-10--10--12--|
Eb:-------------------------|-----------------8-----|------------------------|

eb:-----------------------|----------------|----------------------|
Bb:-----------------------|----------------|----------------------|
Gb:-----------------------|----------------|----------------------|
Db:--12-10----------------|----------------|---------------10-----|
Ab:--12-10--12-10--109---|--8-----10------|--12--12-----8--8-10--|
Eb:-----------------87---|--6------8------|--10--10-----6-----8--|

eb:----------------------|----------------------|-------------------|
Bb:----------------------|----------------------|-------------------|
Gb:----------------------|----------------------|-------------------|
Db:---------------10-12--|---------------10-----|-------------------|
Ab:--12--12-----8--8-10--|--12--12-----8--8-10--|--12--12-----8--5--|
Eb:--10--10-----6--------|--10--10-----6-----8--|--10--10-----6--3--|

eb:-------------|--------------|------------------||
Bb:-------------|--------------|------------------||
Gb:-------------|--------------|------------------||
Db:-------------|--------------|------------------||
Ab:-------------|--5-----------|--5----7--7--7----||
Eb:-------------|--3-----------|--3----5--5--5----||.

------------------------- MetallicA ----------------------------------
Stone Cold Crazy (Queen version, but the same)
----------------
Tabbed by Howard Wright (spxhaw@uk.ac.cf.thor)

Main riff:

As usual h=hammer on, p=pull off

E--
B--
G--
D-----------------2-------------4---4--------------- }
A---4---4-4-4-4-4-0-----4---4-4-0h2-2--2--1--2--3--4 } Play twice
E---0h2-2-2-2-2-2-------0h2-2-2--------------------- }

E-
B-
G-
D--2h4-4-4-4p2---2-------------4---4--------------- }
A--------------4-0-----4---4-4-0h2-2--2--1--2--3--4 } Twice
E----------------------0h2-2-2--------------------- }

Verse 1:
--------
(No more guitar as the singing starts..)

Guitar comes in with a B power chord (x244xx) as Freddie sings

'crazy' for the first time (BEFORE the harmony vocals on 'Stone

cold crazy')

Then back to the main riff as before

Verse 2 same as Verse 1

Now, after the harmony vocals on 'Stone cold crazy' :
A power chord (x022xx), then Bb power chord (x133xx) leads into
the guitar break which is all over the Bb chord

(Half way through there is a little downward bit :

E
B
G--3--1------------
D--------3--2--1---
A-----------------4-
E

...then back to Bb for the rest of the solo)

After the solo, the main riff again , another verse, another
chorus over a B power chord, then it ends with:

E--x--x--x--x--
B--x--x--x--x--
G--x--x--x--x--
D--x--x--x--x--4-
A--x--x--x--x--4-
E--x--x--x--x--2-

(attack the muted strings for the xs)

------------------------- MetallicA ----------------------------------
So What!
--------
Rafael Dylong

Gtr1
||------------||-----------|-----------|---------|-----------|
||------------||-----------|-----------|---------|-----------|
||------------||-----------|-----------|---------|-----------|
||------------||-57-7-7-7-|-57-7-7-7-|-5-7-5-7-|-57-7-7-7-|
||------------||-57-7-7-7-|-57-7-7-7-|-5-7-5-7-|-57-7-7-7-|
||------------||-35-5-5-5-|-35-5-5-5-|-3-5-3-5-|-35-5-5-5-|

Gtr1&2
|-----------|-----------|---------|-----------|
|-----------|-----------|---------|-----------|
|-----------|-----------|---------|-----------|
|-57-7-7-7-|-57-7-7-7-|-5-7-5-7-|-57-7-7-7-|
|-57-7-7-7-|-57-7-7-7-|-5-7-5-7-|-57-7-7-7-|
|-35-5-5-5-|-35-5-5-5-|-3-5-3-5-|-35-5-5-5-|

|----------|----------|----------|----------|
|----------|----------|----------|----------|
|-57777777|-77777777-|-77777777-|-77777777-| |
|-57777777|-77777777-|-77777777-|-77777777-| |
|-35555555|-55555555-|-55555555-|-55555555-| |
|----------|----------|----------|----------| |
|
|
|-----------|-----------|---------|-----------| |
|-----------|-----------|---------|-----------| |
|-----------|-----------|---------|-----------| |
|-57-7-7-7-|-57-7-7-7-|-5-7-5-7-|-57-7-7-7-| |
|-57-7-7-7-|-57-7-7-7-|-5-7-5-7-|-57-7-7-7-| |
|-35-5-5-5-|-35-5-5-5-|-3-5-3-5-|-35-5-5-5-| |
|
|
|----------|----------|----------|----------| |
|----------|----------|----------|----------| |
|-57777777|-77777777-|-77777777-|-77777777-| |
|-57777777|-77777777-|-77777777-|-77777777-| |
|-35555555|-55555555-|-55555555-|-55555555-| |
|----------|----------|----------|----------| 3 times

> 1&2&3 Verse
|-----------|-----------|---------|-----------| /
|-----------|-----------|---------|-----------| /
|-----------|-----------|---------|-----------| |
|-57-7-7-7-|-57-7-7-7-|-5-7-5-7-|-57-7-7-7-| |
|-57-7-7-7-|-57-7-7-7-|-5-7-5-7-|-57-7-7-7-| |
|-35-5-5-5-|-35-5-5-5-|-3-5-3-5-|-35-5-5-5-| |
|
Gtr1 |
|----------|----------|-----------|-----------| |
|----------|----------|-----------|-----------| |
|----------|-----2----|-----------|-----------| |
|-----2----|---2---2--|-57-7-7-7-|-57-7-7-7-| |
|---2---2--|-1--------|-57-7-7-7-|-57-7-7-7-| |
|-1--------|----------|-35-5-5-5-|-35-5-5-5-| |
| | | | | |
|Gtr2 | | | | |
|----------|-6--------|-----------|-----------| |
|-----6----|---6------|-----------|-----------| |
|---5---5--|-----3----|-----------|-----------| |
|-3--------|-------3--|-----------|-----------| |
|----------|----------|-----------|-----------| |
|----------|----------|-----------|-----------| |
|
|
Gtr1 |
|----------|----------|-----------|-----------| |
|----------|----------|-----------|-----------| |
|----------|-----2----|-----------|-----------| |
|-----2----|---2---2--|-57-7-7-7-|-57-7-7-7-| |
|---2---2--|-1--------|-57-7-7-7-|-57-7-7-7-| |
|-1--------|----------|-35-5-5-5-|-35-5-5-5-| |
| | | | | |
|Gtr2 | | | | |
|----------|-6--------|-----------|-----------| |
|-----6----|---6------|-----------|-----------| |
|---5---5--|-----3----|-----------|-----------| |
|-3--------|-------3--|-----------|-----------| |
|----------|----------|-----------|-----------| |
|----------|----------|-----------|-----------| |
|
|---------|-----------| |
|---------|-----------| |
|---------|-----------| |
|-5-7-5-7-|-57-7-7-7-| |
|-5-7-5-7-|-57-7-7-7-| /
|-3-5-3-5-|-35-5-5-5-| /

Gtr1
|----------|----------|----------|----------|
|----------|----------|----------|----------|
|-57777777|-77777777-|-77777777-|-77777777-| |
|-57777777|-77777777-|-77777777-|-77777777-| |
|-35555555|-55555555-|-55555555-|-55555555-| |
|----------|----------|----------|----------| |
|
|
|-----------|-----------|---------|-----------| |
|-----------|-----------|---------|-----------| |
|-----------|-----------|---------|-----------| |
|-57-7-7-7-|-57-7-7-7-|-5-7-5-7-|-57-7-7-7-| |
|-57-7-7-7-|-57-7-7-7-|-5-7-5-7-|-57-7-7-7-| |
|-35-5-5-5-|-35-5-5-5-|-3-5-3-5-|-35-5-5-5-| |
|
|
|----------|----------|----------|----------| |
|----------|----------|----------|----------| |
|-57777777|-77777777-|-77777777-|-77777777-| |
|-57777777|-77777777-|-77777777-|-77777777-| | JAMES H.
|-35555555|-55555555-|-55555555-|-55555555-| playes.
|----------|----------|----------|----------| rhytm gtr.
> &&&
/ MR.HAMMETT
|-----------|-----------|---------|-----------| / the
|-----------|-----------|---------|-----------| | solo
|-----------|-----------|---------|-----------| |
|-57-7-7-7-|-57-7-7-7-|-5-7-5-7-|-57-7-7-7-| |
|-57-7-7-7-|-57-7-7-7-|-5-7-5-7-|-57-7-7-7-| |
|-35-5-5-5-|-35-5-5-5-|-3-5-3-5-|-35-5-5-5-| |
|
|
|----------|----------|-----------|-----------| |
|----------|----------|-----------|-----------| |
|----------|-----2----|-----------|-----------| |
|-----2----|---2---2--|-57-7-7-7-|-57-7-7-7-| |
|---2---2--|-1--------|-57-7-7-7-|-57-7-7-7-| |
|-1--------|----------|-35-5-5-5-|-35-5-5-5-| |
|
|
|----------|----------|-----------|-----------| |
|----------|----------|-----------|-----------| |
|----------|-----2----|-----------|-----------| |
|-----2----|---2---2--|-57-7-7-7-|-57-7-7-7-| |
|---2---2--|-1--------|-57-7-7-7-|-57-7-7-7-| |
|-1--------|----------|-35-5-5-5-|-35-5-5-5-| |
|
|---------|-----------| |
|---------|-----------| |
|---------|-----------| |
|-5-7-5-7-|-57-7-7-7-| |
|-5-7-5-7-|-57-7-7-7-| /
|-3-5-3-5-|-35-5-5-5-| /

Gtr1&2
|----------|----------|----------|----------|
|----------|----------|----------|----------| |
|-57777777|-77777777-|-77777777-|-77777777-| |
|-57777777|-77777777-|-77777777-|-77777777-| |
|-35555555|-55555555-|-55555555-|-55555555-| |
|----------|----------|----------|----------| |
|
|
|-----------|-----------|---------|-----------| |
|-----------|-----------|---------|-----------| |
|-----------|-----------|---------|-----------| |
|-57-7-7-7-|-57-7-7-7-|-5-7-5-7-|-57-7-7-7-| |
|-57-7-7-7-|-57-7-7-7-|-5-7-5-7-|-57-7-7-7-| |
|-35-5-5-5-|-35-5-5-5-|-3-5-3-5-|-35-5-5-5-| |
|
|
|----------|----------|----------|----------| |
|----------|----------|----------|----------| |
|-57777777|-77777777-|-77777777-|-77777777-| |
|-57777777|-77777777-|-77777777-|-77777777-| |
|-35555555|-55555555-|-55555555-|-55555555-| |
|----------|----------|----------|----------|

> 4 Verse
|-----------|-----------|---------|-----------| /
|-----------|-----------|---------|-----------| /
|-----------|-----------|---------|-----------| |
|-57-7-7-7-|-57-7-7-7-|-5-7-5-7-|-57-7-7-7-| |
|-57-7-7-7-|-57-7-7-7-|-5-7-5-7-|-57-7-7-7-| |
|-35-5-5-5-|-35-5-5-5-|-3-5-3-5-|-35-5-5-5-| |
|
Gtr1 |
|----------|----------|-----------|-----------| |
|----------|----------|-----------|-----------| |
|----------|-----2----|-----------|-----------| |
|-----2----|---2---2--|-57-7-7-7-|-57-7-7-7-| |
|---2---2--|-1--------|-57-7-7-7-|-57-7-7-7-| |
|-1--------|----------|-35-5-5-5-|-35-5-5-5-| |
| | | | | |
|Gtr2 | | | | |
|----------|-6--------|-----------|-----------| |
|-----6----|---6------|-----------|-----------| |
|---5---5--|-----3----|-----------|-----------| |
|-3--------|-------3--|-----------|-----------| |
|----------|----------|-----------|-----------| |
|----------|----------|-----------|-----------| |
|
|
Gtr1 |
|----------|----------|-----------|-----------| |
|----------|----------|-----------|-----------| |
|----------|-----2----|-----------|-----------| |
|-----2----|---2---2--|-57-7-7-7-|-57-7-7-7-| |
|---2---2--|-1--------|-57-7-7-7-|-57-7-7-7-| |
|-1--------|----------|-35-5-5-5-|-35-5-5-5-| |
| | | | | |
|Gtr2 | | | | |
|----------|-6--------|-----------|-----------| |
|-----6----|---6------|-----------|-----------| |
|---5---5--|-----3----|-----------|-----------| |
|-3--------|-------3--|-----------|-----------| |
|----------|----------|-----------|-----------| /
|----------|----------|-----------|-----------| /


|---------|---------|-----------------|----||
|---------|---------|-----------------|----||
|---------|---------|-----------------|----||
|-5-7-5-7-|-5-7-5-7-|-----------------|-7-||

Related Metallica Tabs

Turn The Page tabs
Call Of Ktulu tabs
NIB tabs
The Things That Should Not Be tabs
Return Of The Vampire tabs
Carpe Diem Baby tabs
One Solo tabs
The Thorn Within tabs
One Intro tabs
Imperial March tabs
Enter Sandman Solo tabs
Anestheia Correct (rate) tabs
Untill It Sleeps tabs
The House Jack Built tabs
Anestheia tabs
Carol Of The Bells Bass tabs
The Frayed Ends Of Sanity tabs
My Friend Of Misery (solo) tabs
Funeral March Of A Marionette tabs
Unforgiven 2 Solo tabs


Guitar Tabs




All tabs are property and copyright of their owners. All tabs provided for educational purposes only. Privacy Policy, DMCA, Links