Metallica

Garage Days Re-visited Album Tabs



More from Metallica

Metallica Tabs
Metallica Chords
Metallica Bass
Metallica Lyrics



GARAGE DAYS RE-VISITED
1.Helpless
2.The Small Hours
3.The Wait
4.Crash Course In Brain Surgery
5.Last Caress
6.Green Hell

1.Helpless

Rythmn Fig 1. Bridge into chorus

|| Hold These chords
A B F# Repeat|| A B F# D E F# D E F#
e|------------------------------||----------------------------------|
B|------------------------------||----------------------------------|
G|-2-4--(4)--------------------*||-2-4--(4)------7-9---11-7-9-------|
D|-2-4--(4)-----4-----4-----4--*||-2-4--(4)---4--7-9-4-11-7-9-4-----|
A|-0-2-0h2p0----4-----4-----4---||-0-2-0h2p0--4--5-7-4- 9-5-7-4-----|
E|------------2-2-0-2-2-0-2-2-0-||------------2------2--------2--2--|
|
|
Pick real Fast and alot


By this ( ) I mean hold the B chord with your ring finger and just perform the
hammer and pull-offs with your index finger. Repeat This rythmn figure until
you hit the bridge to the chorus. The Bridge into the chorus has a bunch of
power chords which are held. Listen to the tune and you'll get the picture....





Chorus (Lyrics go 'HELPLESS....!')

Part 1 Part 2 Part 3
A repeat 3x| A G | A G A
e|---------------------------------|------------------|-----------------
B|---------------------------------|------------------|-----------------
G|--------------------------------*|-----------------*|-----------------
D|------------------7p5---------5-*|-----------5-5-5-*|-----------5-5-7-
A|----------------------7-6-7-6----|-----------5-5-5--|-----------5-5-7-
E|--5-5-5-5-5-5-5-5----------------|-5-5-5-5-5-3-3-3--|-5-5-5-5-5-3-3-5-

2.The Small Hours

1)
d---------------------------------------0
A-----7----8----7----8---6---7---6---7--7
F--10---10---10---10---9---9---9---9----9
C---------------------------------------9
G----------------------------------------
D----------------------------------------
Intro with flange and delay


2)
C-----------------------------------------------------
G--2-2-4/5-4/5--2-2-4/5--2-2-4/5-4/5--2-2-4/5--54-43
D--0-0-2/3-2/3--0-0-2/3--0-0-2/3-2/3--0-0-2/3--32-21
Get on with it


3)
F------------
C------------
G-------7-5-4
D--0-0--5-3-2
pm..
Don't step into the deamons lair


4)
F-----------------------------------------------------
C-------------0-------------------------0-----2--2h4p2
G------2--0-2---2-0-2-0----------2--0-2---2-0---------
D--0-0-0----------------3~~--0-0-0--------------------
pm.. ...
And I try to get through to you...


5)
F-------------
C-------------
G--2--3--5-3-2
D--0--1--3-1-0
pre-solo (with intro riff)


6)
F-------------------------------------------------
C------------------2--4------------------2--------
G------------------0--2------------------0--------
D--0--0-0-0--0-0-0-------0--0-0-0--0-0-0---0-2-3-2
pm.............................................
solo riff

___________________________________________
solo
1)
d--------------------------------
A--------------------------------
F------------7-9~~----------7-9~~
C--------7-9------------7-9------
G--7-9-10---------7-9-10---------
D--------------------------------
(4:23)


2)
d---------------------
A--9--7-----7--9--7---
F--------7-----------7
C---------------------
G---------------------
D---------------------
(4:26) all artifical harmonix and bends
(I'm not real sure about this part)


3)
d--bunch of fast triplets ending on-16~~
A----------------------------------------
F----------------------------------------
C----------------------------------------
G----------------------------------------
D----------------------------------------
(4:30)


4)
d--16p14----14--------------------------16p14----14-------------------------
A--------16----16p14-16p14----14--------------16----16p14-16p14----14-------
F--------------------------16----16p13--------------------------16----16p13-
C---------------------------------------------------------------------------
G---------------------------------------------------------------------------
D---------------------------------------------------------------------------
(4:34)


5)
d-------------------------------------------
A-------------------------------------------
F--16p13p11-13p11p9-11p9p7-9p7---9----------
C------------------------------9---9p7-7----
G---------------------------------------10p7
D-------------------------------------------
(4:37)


6)
d---------------------------------------17
A--------------------16-14--16-14-16-14-17
F--------------14----16-14--16-14-16-14---
C--------14-16----16----------------------
G--14-16----------------------------------
D-----------------------------------------
pm.......
(4:40)

3.The Wait

Intro:


| |
o'. / o'. / / / / / / / / / / / / /
-----------|----------|------------------------------------------------------|
-----------|----------|------------------------------------------------------|
-----------|----------|*--------------------------------------------------0-*|
---------3-|-------3--|*-2-----x---2-----x---2-----x---2-----x---------3----*|
-----------|----------|--2-----x---2-----x---2-----x---2-----x------3--------|
p0------|--0-------|--0-----x---2-----x---2-----x---2-----x---1-----------|
^ P.M. ^^^^^^^^^^




Main:

/ / / / / / / / / / / / / / / / / / / /
------|--------------------------------------------------|------------------
------|--------------------------------------------------|------------------
------|*----------------------------------------------0--|------------------
---2--|*-2--x-----2----x--2----x--2----x--2--------3-----|--x--2--x-----2---
---2--|--2--x-----2----x--2----x--2----x--2-----3--------|--x--2--x-----2---
---0--|--0--x--3--0----x--0----x--0----x--0--1-----------|--x--0--x--3--0---
P.M.^^^^^^^^^^^^



/ / / / / / / / / / /
-------------------------------------|
-------------------------------------| repeat several times.
------------------------------------*|
---x--2--x--2--x--2--3--3--3--3--3--*|
---x--2--x--2--x--2--3--3--3--3--3---|
---x--0--x--0--x--0--1--1--1--1--1---|
P.M.^^^^^^^^^^^^^



|Chorus (Gtr. 1) -- part 1:
|---------------------------------------------------------------------|
|---------------------------------------------------------------------|
|---2----------------4----------------5----------------10------------|
|---2----------------4----------------5----------------10------------|
|---0----------------2----------------3----------------8-------------|
|---------------------------------------------------------------------|
| |
|Chorus (Gtr. 2) -- part 1: |
|---------------------------------------------------------------------|
|---------------------------------------------------------------------|
|---2----------------4----------------5-------------------------------|
|---2----------------4----------------5----------------3--------------|
|---0----0--0-----0--2----2--2--0--2--3----3--3--2--0--3--------------|
|--------------3---------------------------------------1--------------|
P.M.^^^^^^^^^^ P.M.^^^^^^^^^^ P.M.^^^^^^^^^^



|Gtr 1 -- part 2:
|---------------------------------------------------------------------|
|---------------------------------------------------------------------|
|---2---------------4---------------5---------------------------------|
|---2---------------4---------------5-----------------3---------------|
|---0---------------2---------------3-----------------3---------------|
|-----------------------------------------------------1---------------|
|
|Gtr. 2:



|Both Gtrs -- part 3:
|---------------------------------------------------------------------|
|---------------------------------------------------------------------|
|---2---------------4---------------5------------------10------------|
|---2---------------4---------------5------------------10------------|
|---0---------------2---------------3------------------8-------------|
|---------------------------------------------------------------------|





Pre-solo:
|--------------------------------------------------------------------------|
|--------------------------------------------------------------------------|
|*---10---9----------------------10---9------14--13--------10---9------|
|*-----------------10---9-------------------------------------------------|
|----8----7----------------------8----7------12--11--------8----7------|
|------------------8----7-------------------------------------------------|

_____________________________________ ________________________________
1. / 2.
-----------------------------------------|-----------------------------------|
-----------------------------------------|-----------------------------------|
---10---9-------14--13-------17--16--*|--14--13-----17--16-----22--21--|
----------------------------------------*|-----------------------------------|
---8----7-------12--11-------15--14---|--12--11-----15--14-----20--19--|
-----------------------------------------|-----------------------------------|


Solo:

1.25 1.25


4.Crash Course In Brain Surgery

Intro 0:12
-|-------------------------------|
-|-------------------------------|
-|-------------5-6-7-------------|
-|-------5-6-7-------5-6-7-5-6-7-|
-|-5-6-7-------------------------|
-|-------------------------------|
x2
Riff 1 0:18
Pm........................ Riff 1 add on
|--------------|----------------------| |------------|--------------|----------|
|--------------|----------------------| |------------|--------------|----------|
|--------------|----------------------| |------------|--------------|----------|
|--------------|----------------------| |------------|--------------|----------|
|-0-2--2--2--2-|-7-5---2-0------------| |------------|--0-----------|--1-------|
|-0-2--2--2--2-|-------------5-2---0-1| |-5--2-------|--0-----------|--1-------|
x4
................................................................................x2

Riff 2 0:37
Pm........................... pm........................
|--------------|--------------|------------|--------------------|
|--------------|--------------|------------|--------------------|
|--------------|--------------|------------|--------------------|
|--------------|--------------|------------|--------------------|
|-0-2--2--2--2-|-3-5--5--5--5-|-3--0--0----|--------------------|
|-0-2--2--2--2-|-3-5--5--5--5-|-3--0--0----|-0----0--0-0-0---14-|
x16! x3 x2

End Riff 2:54
|-----------------|-----------------|---------------------------|
|-----------------|-----------------|---------------------------|
|-----------------|-----------------|---------------------------|
|-----------------|-----------------|---------------------------|
|-0--2---2---2---2|-----------------|----------0---1---x---2--2-|
|-0--2---2---2---2|-5---2-----0---1-|--5---2---0---1---x---2--2-|
x4

5.Last Caress

Intro
|---------------10-12-----10-12--10---7----|
|10-------------10-12--10-10-12--10---7----|
|10--------------8-10--10--8-10---8---5----|
|-8---------------------8------------------|

Verse
PM...................
|-------------------------10-12-|
|10-----------------------10-12-|
|10------------------------8-10-|
|-8--8-8-8-8-8-8-8-8-8-8--------|

Fill
PM...........
|10---10---7--7------------------------------------|
|10---10---7--7---10---------------9/10-10-10------|
|-8----8---5--5---10---------------9/10-10-10------|
|------------------8--8-8-8-8-8-8--7/8---8--8------|

Chorus
|-3-----3----5-----5-----------------------------------|
|-1-----1----3-----3--8-8-8-8-7-7-7-7-5-5-5-5-5-5-5-5--|

End
|----------10-12-|
|-10-------10-12-|
|-10--------8-10-|
|--8-------------|

6.Green Hell

Riff #1
s s s s s s s s s s s s s s s s s s s s s s
||----------------------------------------------------------------------||
||----------------------------------------------------------------------||
||*--------------------------------------------------------------------*||
||*--------------------------------------------------------------------*||
||----------------------------------------------------------------------||
||---3--3--3--3--3--3--3--3--3--3--3--3--3--3--3--3--3--3--3--3--3--3---||


Riff #2
s s s s s s s s e e e e
||-----------------------------------------------||
||-----------------------------------------------||
||*---------------------------------------------*||
||*---------------------------------------1-----*||
||-------------------------------1-----------3---||
||----3--3--3--3--3--3--3--3--------3------------||


Riff #3
|---------------------------|
|---------------------------|
|---5--5--5--5--5--5--5--5--|
|---5--5--5--5--5--5--5--5--|
|---3--3--3--3--3--3--3--3--|
|---------------------------|


Riff #4 Riff #5
-------------------------|---------------------------|
-------------------------|---------------------------|
-------------------------|---------------------------|
-5--5--5--5--5--5--5--5--|---2--2--2--2--2--2--2--2--|
-5--5--5--5--5--5--5--5--|---2--2--2--2--2--2--2--2--|
-3--3--3--3--3--3--3--3--|---0--0--0--0--0--0--0--0--|

AND JUSICE FOR ALL

1.Blackened

E|--------------------------------------------|
B|--------------------------------------------|
G|--------------------------------------------|
D|-3-----------------------2-------------x----|
A|-1-----------2---3-3-----2-------------x----|
E|-----2---3-----------1-----------------x----|
! . . . . . .

E||-----------------------------------------------------------|
B||-----------------------------------------------------------|
G||*----------------------------------------------------------|
D||*-------------------------------------------------8--------|
A||------7-------7-------7---8---7-------7-------7-------7----|
E||--0-------0-------0---------------0-------0------(6)-------|
! . . . . . ^
! 2nd guitar play this
! 2nd time only

E|----------------------------------------------------------||
B|----------------------------------------------------------||
G|---------------------------------------------------------*|| 3x
D|---------------------------------------------------------*||
A|-----7-------7-------7---8---7---8-----------2---3-3------||
E|-0-------0-------0---------------6---2---3-----------1----||
. . . . . . . . .

4th time
E|--------------------------------------------------------------|
B|--------------------------------------------------------------|
G|--------------------------------------------------------------|
D|-------------------------------------------------8------------|
A|-----7-------7-------7---8---7-------7-------7-------7--------|
E|-0-------0-------0---------------0-------0------(6)------0----|
! . . . . . ^ .
! 2nd gtr play this


E|----------------------------------|----------------------------------|
B|----------------------------------|----------------------------------|
G|----------------------------------|----------------------------------|
D|-5---5-5-5-------5---5------------|-5---5-5-5-------4---4------------|
A|-5---5-5-5-------5---5------------|-5---5-5-5-------4---4------------|
E|-3---3-3-3---0---3---3------------|-3---3-3-3---0---2---2------------|

. . . . . . . . . . . .



E||-----------------------------------------------------------|
B||-----------------------------------------------------------|
G||*----------------------------------------------------------|
D||*-------------------------------------------------8--------|
A||------7-------7-------7---8---7-------7-------7-------7----|
E||--0-------0-------0---------------0-------0------(6)-------|
! . . . . . ^
! 2nd gtr play this
! 2nd and 4th time
only

E|-----------------------------------------------------------||
B|-----------------------------------------------------------||
G|----------------------------------------------------------*|| 4x
D|----------------------------------------------------------*||
A|------7-------7-------7---8---7---8-----------2---3-3------||
E|--0-------0-------0---------------6---2---3-----------1----||
! . . . . . . . . .



E||---------------------------------------------------||
B||---------------------------------------------------||
G||*-------------------------------------------------*|| 4x
D||*-------------------------3-----------------------*||
A||--2---2---2---2---2---2---1-----------2---1--------||
E||--0---0---0---0---0---0-------2---3-----------3----||
! (.) . . . . . . .
! ^
! palm mute 1st time only


1st verse

E||---------------------------------------------------|
B||---------------------------------------------------|
G||*--------------------------------------------------|
D||*-------------------------3------------------------|
A||--2---2---2---2---2---2---1-----------2---1--------|
E||--0---0---0---0---0---0-------2---3-----------3----|
! . . . . . . .

E|---------------------------------------------------|
B|---------------------------------------------------|
G|---------------------------------------------------|
D|--------------------------3------------------------|
A|--2---2---2---2---2---2---1-----------2---1--------|
E|--0---0---0---0---0---0-------2---3-----------3----|
! . . . . . . .

E|---------------------------------------------------|
B|---------------------------------------------------|
G|---------------------------------------------------|
D|--------------------------3-----------------s------|
A|--2---2---2---2---2---2---1-----------1---4-/-5----|
E|--0---0---0---0---0---0-------2---3-------2-/-3----|
! . . . . . . .

1st ending
E|---------------------------------------------------||
B|---------------------------------------------------||
G|--------------------------------------------------*||
D|--------------------------3-----------------------*||
A|--5---5---5---5---5---5---1-----------2---1--------||
E|--3---3---3---3---3---3-------2---3-----------3----||
! . . . . . . . .

2nd ending
E|----------------------------------------------------||
B|----------------------------------------------------||
G|---------------------------------------------------*||
D|-------------------------3-------------s----s------*||
A|-5---5---5---5---5---5---1-----------12--12-------||
E|-3---3---3---3---3---3-------2---3---12--12-------||
! . . . . . . . . ^ ^this slide done by a 2nd
gtr.
! this slide done by 1st gtr and
! is carried out over the 2nd one.

E|----------------------------------------------------------|
B|----------------------------------------------------------|
G|----------------------------------------------------------|
D|-------------------------------------------------8--------|
A|-----7-------7-------7---8---7-------7-------7-------7----|
E|-0-------0-------0---------------0-------0----------------|
! . . . . .

E|----------------------------------------------------------|
B|----------------------------------------------------------|
G|----------------------------------------------------------|
D|----------------------------------------------------------|
A|-----7-------7-------7---8---7---8-----------2---3-3------|
E|-0-------0-------0---------------6---2---3-----------1----|
! . . . . . . . . .

E|----------------------------------------------------------|
B|----------------------------------------------------------|
G|----------------------------------------------------------|
D|-------------------------------------------------8--------|
A|-----7-------7-------7---8---7-------7-------7-------7----|
E|-0-------0-------0---------------0-------0------(6)-------|
! . . . . . ^
! 2nd gtr

E|------------------|
B|------------------|
G|------------------|
D|------------------|
A|-2---2---2---2----|
E|-0---0---0---0----|
! . . . .


1st Chorus
E|----------------------------------|----------------------------------|
B|----------------------------------|----------------------------------|
G|-9--------------------------------|-7---------------5----------------|
D|-9-----------------------7---7----|-7-------5---5---5-------5---5----|
A|-7-----------------------7---7----|-5-------5---5---3-------5---5----|
E|-------------------------5---5----|---------3---3-----------3---3----|

! . . . . . .

E|----------------------------------|----------------------------------|
B|----------------------------------|----------------------------------|
G|----------------------------------|----------------------------------|
D|-4--------------------------------|-5-5-5-----------5-5-5------------|
A|-4--------------------------------|-5-5-5-----------5-5-5------------|
E|-2--------------------------------|-3-3-3-----------3-3-3------------|

! . . . . . .

E|----------------------------------|----------------------------------|
B|----------------------------------|----------------------------------|
G|----------------------------------|-7---------------5----5-----------|
D|-2-----------------------7---7----|-7-------5---5---5----5----5------|
A|-2-----------------------7---7----|-5-------5---5---3----3----5------|
E|-0-----------------------5---5----|---------3---3-------------3------|

! . . . . . . .

E|----------------------------------|----------------------------------|
B|----------------------------------|----------------------------------|
G|----------------------------------|----------------------------------|
D|-4--------------------------------|-5---5-5-5-------4---4------------|
A|-4--------------------------------|-5---5-5-5-------4---4------------|
E|-2--------------------------------|-3---3-3-3---0---2---2------------|

! . . . . . .


E|----------------------------------------------------------|
B|----------------------------------------------------------|
G|----------------------------------------------------------|
D|-------------------------------------------------8--------|
A|-----7-------7-------7---8---7-------7-------7-------7----|
E|-0-------0-------0---------------0-------0----------------|
! . . . . .

E|-----------------------------------------------------------|
B|-----------------------------------------------------------|
G|-----------------------------------------------------------|
D|-----------------------------------------------------------|
A|------7-------7-------7---8---7---8-----------2---3-3------|
E|--0-------0-------0---------------6---2---3-----------1----|
! . . . . . . . . .


2nd verse

(same as 1st verse)


2nd Chorus

(same as 1st chorus)

E|----------------------------------|----------------------------------|
B|----(last-line-of-the-chorus)-----|----------------------------------|
G|----------------------------------|----------------------------------|
D|-4--------------------------------|-5---5-5-5-------4---4------------|
A|-4--------------------------------|-5---5-5-5-------4---4------------|
E|-2--------------------------------|-3---3-3-3---0---2---2------------|

! . . . . . .

E|------------------|--------------|----------------------------------|
B|------------------|--------------|----------------------------------|
G|------------------|--------------|-----Gtr1-------------------------|
D|-3---3------------|-2-----------^|(2)--let-ring-for-the-------------|
A|-3---3------------|-2-----------^|(2)--next-8-measures--------------|
E|-1---1------------|-0-----------^|(0)----------------------0---5----|
! . 1 2 3 4 ^
! 2nd Guitar

E|----------------------------------|----------------------------------|
B|----------------------------------|----------------------------------|
G|----------------------------------|----------------------------------|
D|----------------------------------|----------------------------------|
A|-----7----------------------------|-8---7----------------------------|
E|-6-------0---0---0---0---5---6----|---------0---0---0---0---0---5----|

! . . . . . . . .

E|----------------------------------|----------------------------------|
B|----------------------------------|----------------------------------|
G|----------------------------------|-3--------------------------------|
D|----------------------------------|-1--------------------------------|
A|-----7------------------s----1---^|(1)-------------------------------|
E|-6-------0---0---0---0--/6--------|-------------------------0---5----|

! . . . .

E|----------------------------------|----------------------------------|
B|----------------------------------|----------------------------------|
G|----------------------------------|----------------------------------|
D|------------------------s---------|-8--------------------------------|
A|-----7------------------/7--------|-----7----------------------------|
E|-6-------0---0---0---0-------6----|---------0---0---0---0---0---5----|

! . . . . . . . .

E|----------------------------------|--------------------------------------|
B|----------------------------------|--------------------------------------|
G|----------------------------------|-3------*-----------------------------|
D|----------------------------------|-1-----s----s----s----s---------------|
A|-----7------------------s----1---^|(1)--12--12--12--12---------------|
E|-6-------0---0---0---0--/6--------|-----12---12---12---12-------0---5----|

! . . . . 2 3 4
! * slides actually done by
! 4 different guitars



E||-----------------------------------|----------------------------------|
B||-----------------------------------|----------------------------------|
G||*----------------------------------|----------------------------------|
D||*----------------------------------|----------------------------------|
A||------7----------------------------|-8---7----------------------------|
E||--6-------0---0---0---0---5---6----|---------0---0---0---0---0---5----|

! . . . . . . . .

E|----------------------------------|----------------------------------|
B|----------------------------------|----------------------------------|
G|----------------------------------|-3--------------------------------|
D|----------------------------------|-1--------------------------------|
A|-----7------------------s----1---^|(1)-------------------------------|
E|-6-------0---0---0---0--/6--------|-------------------------0---5----|

! . . . .

E|----------------------------------|----------------------------------|
B|----------------------------------|----------------------------------|
G|----------------------------------|----------------------------------|
D|------------------------s---------|-8--------------------------------|
A|-----7------------------/7--------|-----7----------------------------|
E|-6-------0---0---0---0-------6----|---------0---0---0---0---0---5----|

! . . . . . . . .

E|----------------------------------|----------------------------------|
B|----------------------------------|----------------------------------|
G|----------------------------------|-3--------------------------------|
D|----------------------------------|-1--------------------------------|
A|-----7------------------s----1---^|(1)-----------------s-------s-----|
E|-6-------0---0---0---0--/6--------|--------------------/6---0--/6----|

! . . . .

E|----------------------------------|----------------------------------|
B|----------------------------------|----------------------------------|
G|----------------------------------|----------------------------------|
D|----------------------------------|----------------------------------|
A|-2-------2---2---2---2-----------^|(2)------2---2---2---2-----------^|
E|-0-------0---0---0---0-----------^|(0)------0---0---0---0-----------^|

! . . . . . .

E|----------------------------------|----------------------------------|
B|----------------------------------|----------------------------------|
G|----------------------------------|----------------------------------|
D|----------------------------------|-8--------------------------------|
A|(2)------2---2---2---2------s-----|-6--------------------------s-----|
E|(0)------0---0---0---0------/6---^|(6)----------------------0--/6----|

! . . .

E|----------------------------------|----------------------------------|
B|----------------------------------|----------------------------------|
G|----------------------------------|----------------------------------|
D|----------------------------------|----------------------------------|
A|-2-------2---2---2---2-----------^|(2)------2---2---2---2-----------^|
E|-0-------0---0---0---0-----------^|(0)------0---0---0---0-----------^|

! . . . . . .

E|----------------------------------|----------------------------------|
B|----------------------------------|----------------------------------|
G|----------------------------------|----------------------------------|
D|----------------------------------|-8--------------------------------|
A|(2)------2---2---2---2------s-----|-6--------------------------s-----|
E|(0)------0---0---0---0------/6---^|(6)----------------------0--/6----|

! . . .

E|----------------------------------|----------------------------------|
B|----------------------------------|----------------------------------|
G|----------------------------------|----------------------------------|
D|----------------------------------|----------------------------------|
A|-4-------4---4---4---4-----------^|(4)------4---4---4---4-----------^|
E|-2-------2---2---2---2-----------^|(2)------2---2---2---2-----------^|
! . . . . . .

E|----------------------------------|-----------------------------------||
B|----------------------------------|-----------------------------------||
G|----------------------------------|----------------------------------*||
D|----------------------------------|-10-------------------------------*||
A|(2)------4---4---4---4------s-----|-8------------------s--------------||
E|(0)------2---2---2---2------/8---^|(8)---------------12-----0---5----||

! . . .
! play this second time--->
12-----12------||
! s s

1st time
E|----------------------------------|------------------|
B|----------------------------------|------------------|
G|-9-----------7-----------5-------^|(5)--4------------|
D|-9-----------7-----------5-------^|(5)--4------------|
A|-7-----------5-----------3-------^|(3)--2------------|
E|----------------------------------|---------3---2----|
! . .

E|----------------------------------|--------------------------|
B|----------------------------------|--------------------------|
G|-------------7-----------5-------^|(5)--4--------------------|
D|-2-----------7-----------5-------^|(5)--4--------------------|
A|-2-----------5-----------3-------^|(3)--2--------------------|
E|-0--------------------------------|-----------------3---2----|
! . .

2nd, 3rd and 4th times
E||-----------------------------------|------------------|
B||-----------------------------------|------------------|
G||*-------------7-----------5-------^|(5)--4------------|
D||*-2-----------7-----------5-------^|(5)--4------------|
A||--2-----------5-----------3-------^|(3)--2------------|
E||--0--------------------------------|---------3---2----|
! . .

E|----------------------------------|--------------------------||
B|----------------------------------|--------------------------||
G|-------------7-----------5-------^|(5)--4-------------------*||
D|-2-----------7-----------5-------^|(5)--4-------------------*||
A|-2-----------5-----------3-------^|(3)--2--------------------||
E|-0--------------------------------|-----------------3---2----||
! . .



Solo 6x
E||-----------------------------------|----------------------------------||
B||-----------------------------------|----------------------------------||
G||*----------------------------------|---------------------------------*||
D||*----------------------------------|----------------------------s----*||
A||--2---2---2---2---2---2---2---2----|-2---2---2---2---2---2---2--/3----||
E||--0---3---0---2---0---3---0---2----|-0---3---0---2---0---3------------||

. . . . . . . . . . . . . .

E|----------------------------------|----------------------------------------|
B|----------------------------------|----------------------------------------|
G|----------------------------------|----------------------------------------|
D|----------------------------------|-------------------------4---5----------|
A|-2---2---2---2---2---2---2---2----|-2---2---2---2---2---2---2---3----------|
E|-0---3---0---2---0---3---0---2----|-0---3---0---2---0---3------------------|

. . . . . . . . . . . . . .

E|----------------------------------|----------------------------------|
B|----------------------------------|----------------------------------|
G|----------------------------------|----------------------------------|
D|-5---5-5-5-------4---4------------|-5---5-5-5-------4---4------------|
A|-5---5-5-5-------4---4------------|-5---5-5-5-------4---4------------|
E|-3---3-3-3---0---2---2------------|-3---3-3-3---0---2---2------------|

. . . . . . . . . . . .

E|------------------|
B|------------------|
G|------------------|
D|-3---3------------|
A|-3---3------------|
E|-1---1------------|
.


E||-----------------------------------|----------------------------------|
B||-----------------------------------|----------------------------------|
G||*----------------------------------|----------------------------------|
D||*----------------------------------|----------------------------------|
A||------7-------7-------7-------7----|-----5-------5-------5-------5----|
E||--0-------0-------0-------0--------|-0-------0-------0-------0--------|

. . . . . . . .

E|----------------------------------|----------------------------------||
B|----------------------------------|----------------------------------||
G|----------------------------------|---------------------------------*||
D|----------------------------------|---------------------------h-----*||
A|-----8-------8-------8-------8----|-----7-------7-------7---5-^-7----||
E|-0-------0-------0-------0--------|-0-------0-------0----------------||

. . . . . . .


E|----------------------------------|
B|----------------------------------|
G|----------------------------------|
D|----------------------------------|
A|-2---2---2---2---2---2---2---2----|
E|-0---0---0---0---0---0---0---0----|
. . . . . . . .



E|----------------------------------|----------------------------------|
B|----------------------------------|----------------------------------|
G|-9--------------------------------|-7---------------5----------------|
D|-9-----------------------7---7----|-7-------5---5---5-------5---5----|
A|-7-----------------------7---7----|-5-------5---5---3-------5---5----|
E|-------------------------5---5----|---------3---3-----------3---3----|

! . . . . . .

E|----------------------------------|----------------------------------|
B|----------------------------------|----------------------------------|
G|----------------------------------|----------------------------------|
D|-4--------------------------------|-5-5-5-----------5-5-5------------|
A|-4--------------------------------|-5-5-5-----------5-5-5------------|
E|-2--------------------------------|-3-3-3-----------3-3-3------------|

! . . . . . .

E|----------------------------------|----------------------------------|
B|----------------------------------|----------------------------------|
G|----------------------------------|-7---------------5----------------|
D|-2-----------------------7---7----|-7-------5---5---5-------5---5----|
A|-2-----------------------7---7----|-5-------5---5---3-------5---5----|
E|-0-----------------------5---5----|---------3---3-----------3---3----|

! . . . . . .

E|----------------------------------|----------------------|
B|----------------------------------|----------------------|
G|----------------------------------|----------------------|
D|-4--------------------------------|-5---5-5-5-------4----|
A|-4--------------------------------|-5---5-5-5-------4----|
E|-2--------------------------------|-3---3-3-3---0---2----|
! . . . . . .


E|----------------------------------|----------------------------------|
B|----------------------------------|----------------------------------|
G|----------------------------------|----------------------------------|
D|----------------------------------|----------------------------------|
A|-----7-------7-------7-------7----|-----7-------7-------7-------7----|
E|-0-------0-------0-------6--------|-5-------5-------5-------5--------|

. . . . . . . .

E|----------------------------------|----------------------------------|
B|----------------------------------|----------------------------------|
G|----------------------------------|----------------------------------|
D|----------------------------------|-----5-------5--------------------|
A|-----5-------5-------5-------5----|-3-------3-----------5-------5----|
E|-3-------3-------3-------3--------|-----------------3-------3--------|

. . . . . . . .


E|----------------------------------|----------------------------------|
B|----------------------------------|----------------------------------|
G|----------------------------------|----------------------------------|
D|----------------------------------|----------------------------------|
A|-----7-------7-------7-------7----|-----7-------7-------7-------7----|
E|-0-------0-------0-------6--------|-5-------5-------5-------5--------|

. . . . . . . .




(note the extra 1/8 note in this meas.)
E|----------------------------------|--------------------------------------|
B|----------------------------------|--------------------------------------|
G|----------------------------------|--------------------------------------|
D|-5---5---5---5---5---5---5---5----|-5---5---5---5---5---5---5---5---5----|
A|-5---5---5---5---5---5---5---5----|-3---3---3---3---5---5---5---5---5----|
E|-3---3---3---3---3---3---3---3----|-----------------3---3---3---3---3----|

! . . . . . . . . . . . . . . . . .
! It's easier to play this last note as an muted low-E ^

E|----------------------------------------------------------|
B|----------------------------------------------------------|
G|----------------------------------------------------------|
D|---------------------------------------------8------------|
A|-7-------7-------7---8---7-------7-------7-------7--------|
E|-----0-------0---------------0-------0---------------0----|
. . . . .

E|----------------------------------------------------------|
B|----------------------------------------------------------|
G|----------------------------------------------------------|
D|----------------------------------------------------------|
A|-7-------7-------7---8---7---8-----------2---3-3----------|
E|-----0-------0---------------6---2---3-----------1---0----|
. . . . . . . . .

E|----------------------------------------------------------|
B|----------------------------------------------------------|
G|----------------------------------------------------------|
D|---------------------------------------------8------------|
A|-7-------7-------7---8---7-------7-------7-------7--------|
E|-----0-------0---------------0-------0------(6)------0----|
. . . . .

(note this meas. is an 1/8 note short)
E|------------------------------------------------------|
B|------------------------------------------------------|
G|------------------------------------------------------|
D|------------------------------------------------------|
A|-7-------7-------7---8---7---8-----------2---3-3------|
E|-----0-------0---------------6---2---3-----------1----|
. . . . . . . .

E||-----------------------------------------------------------|
B||-----------------------------------------------------------|
G||*----------------------------------------------------------|
D||*-------------------------------------------------8--------|
A||------7-------7-------7---8---7-------7-------7-------7----|
E||--0-------0-------0---------------0-------0------(6)-------|
! . . . . . ^
! 2nd guitar play this
! 2nd time only

E|----------------------------------------------------------||
B|----------------------------------------------------------||
G|---------------------------------------------------------*||
D|---------------------------------------------------------*||
A|-----7-------7-------7---8---7---8-----------2---3-3------||
E|-0-------0-------0---------------6---2---3-----------1----||
! . . . . . . . . .

3rd verse

(same as first)

3rd Chorus

E|----------------------------------|----------------------------------|
B|----------------------------------|----------------------------------|
G|-9--------------------------------|-7---------------5----------------|
D|-9-----------------------7---7----|-7-------5---5---5-------5---5----|
A|-7-----------------------7---7----|-5-------5---5---3-------5---5----|
E|-------------------------5---5----|---------3---3-----------3---3----|

! . . . . . .

E|----------------------------------|----------------------------------|
B|----------------------------------|----------------------------------|
G|----------------------------------|----------------------------------|
D|-4--------------------------------|-5-5-5-----------5-5-5------------|
A|-4--------------------------------|-5-5-5-----------5-5-5------------|
E|-2--------------------------------|-3-3-3-----------3-3-3------------|

! . . . . . .

E|----------------------------------|----------------------------------|
B|----------------------------------|----------------------------------|
G|----------------------------------|-7---------------5----5-----------|
D|-2-----------------------7---7----|-7-------5---5---5----5----5------|
A|-2-----------------------7---7----|-5-------5---5---3----3----5------|
E|-0-----------------------5---5----|---------3---3-------------3------|

! . . . . . . .

E|----------------------------------|----------------------|
B|----------------------------------|----------------------|
G|----------------------------------|----------------------|
D|-4--------------------------------|----------------------|
A|-4--------------------------------|-5---5-5-5-------4----|
E|-2--------------------------------|-3---3-3-3---0---2----|
! . . . . . .

E|----------------------------------|----------------------------------|
B|----------------------------------|----------------------------------|
G|----------------------------------|-7---------------5----------------|
D|-2-----------------------7---7----|-7-------5---5---5-------5---5----|
A|-2-----------------------7---7----|-5-------5---5---3-------5---5----|
E|-0-----------------------5---5----|---------3---3-----------3---3----|

! . . . . . .

E|----------------------------------|----------------------------------|
B|----------------------------------|----------------------------------|
G|----------------------------------|----------------------------------|
D|-4--------------------------------|-5-5-5-----------5-5-5------------|
A|-4--------------------------------|-5-5-5-----------5-5-5------------|
E|-2--------------------------------|-3-3-3-----------3-3-3------------|

! . . . . . .

E|----------------------------------|----------------------------------|
B|----------------------------------|----------------------------------|
G|----------------------------------|-7---------------5----5-----------|
D|-2-----------------------5---5----|-7-------5---5---5----5----5------|
A|-2-----------------------5---5----|-5-------5---5---3----3----5------|
E|-0-----------------------3---3----|---------3---3-------------3------|

! . . . . . . .

E|----------------------------------|--------------------------|
B|----------------------------------|--------------------------|
G|----------------------------------|--------------------------|
D|-4--------------------------------|-5---5-5-5-------4---4----|
A|-4--------------------------------|-5---5-5-5-------4---4----|
E|-2--------------------------------|-3---3-3-3---0---2---2----|
! . . . . . .

E|----------------------------------|------------------|
B|----------------------------------|------------------|
G|----------------------------------|------------------|
D|-5---5-5-5-------4---4------------|-3---3------------|
A|-5---5-5-5-------4---4------------|-3---3------------|
E|-3---3-3-3---0---2---2------------|-1---1------------|
. . . . . . .

E|----------------------------------------------------------|
B|----------------------------------------------------------|
G|----------------------------------------------------------|
D|-------------------------------------------------8---2----|
A|-----7-------7-------7---8---7-------7-------7-------2----|
E|-0-------0-------0---------------0-------0-----------0----|


Related Metallica Tabs

Jump In The Fire (intro) tabs
Fade To Black *complete* tabs
53rd And 3rd Ramones Cover tabs
Wasting My Hate tabs
Enter Sandman Better tabs
Whiskey In The Jar tabs
Untill It Sleeps tabs
Last Caress / Green Hell tabs
All Within My Hands tabs
Live Shit Riffs Album tabs
Master Of Puppets tabs
For Whom The Bell Tolls (whole Song) tabs
Purify (2) tabs
My Eyes tabs
Frayed tabs
From Whom The Bell Tolls tabs
Die Die Die My Darling tabs
The Four Horsemen Solo tabs
The Wait tabs
Battery Solo tabs


Guitar Tabs




All tabs are property and copyright of their owners. All tabs provided for educational purposes only. Privacy Policy, DMCA, Links