Metallica

Four Horsmen Tabs



More from Metallica

Metallica Tabs
Metallica Chords
Metallica Bass
Metallica Lyrics




Palm Mute-P.M.|-----(Until You stop muting it)---| |
|Pul-Off=p |
|Repeat= REPEAT(After every string) |
|Hanmmer-On=h |
|Slide= \ Between the two notes |
|Bend=b(followed by number of steps) |
|Artificial Harmonic=^ |
|Harmonic=Harm. |
|Trill=Trill |
|Tap=T |
|Slow Strum=) and ( on each string that is slowly strummed |
|Vibrato=~~~ |
|Huge Vibrato(Exaggerated)=\/\/\/\/\/\/
|
|Pick Slide=\\\\\\\\\
|
|Scratch=x over each muffled string |
|Tremolo Picking=|-------Trem-------| |
|Tremolo Bar Dip or raise=Dip |
|Pre-Bend and release= (p.b. ___(number of steps)) |
|Slow Bend and Release=Sb^___(Number of Steps)Release |
|Release Bend = r |
|Rest=R(Over the spot where the rest is) |
|_____________________________________________________________|


.=""=.
The Four Horsemen
'=,,='
Tempo - Around 200-205

-Intro-
__________________________________________________
|
|Play three times| |
(Guitar I) |
=Guitars I & II= P.M.|-----------------------| |
e|------------------||-------------------------| |
B|-5----------------||--(Use that-there--5-----| |
G|-5---------7----5-||--The second time)-7-----| |
D|-5----5----7----5-||-------------------------| |
A|-3----5----5----3-||-7---5-7---5-7---5-7---5-| |
E|------3-----------||-0-----0-----0-----0-----| |
_________________________________________________|
|Play Two Times|
(Guitar I)
=Guitar I= P.M. |-----------------------|
e|---------------------|-------------------------|------------------|
A|---------------------|-------------------------|------------------|
G|---------------------|-------------------------|------------------|
D|----------7-p-5------|-------------------------|-5---------7----5-|
A|-----5-7^------7-p-5-|-7---5-7---5-7---5-7---5-|-3----5----5----3-|
E|-7-------------------|-0-----0-----0-----0-----|------3-----------|
| |
| =Guitar II= |
| |
e|-----------------------------------------------|------------------|
B|-----------------------------------------------|------------------|
G|-----------------------------------------------|------------------|
D|-----------------------------------------------|-5---------7----5-|
A|----------2----2-------------------------------|-3----5----5----3-|
E|----------0----0-------------------------------|------3-----------|

=Guitars I & II=
|Play three times|
P.M
|-----------------------|
e|-------------------------|-------------------------|
B|--(Use that-there--7-----|-------------------------|
G|--The second time)-5-----|-------------------------|
D|-------------------------|-------------7-p-5-------|
A|-7---5-7---5-7---5-7---5-|-----5-7-p-5-------7-p-5-|
E|-0-----0-----0-----0-----|-7-----------------------|

=Guitars I & II=
|Play two times|
P.M.
|-----------------------|
e|-------------------------|------------------|
B|-------------------------|------------------|
G|-------------------------|-5----------------|
D|-------------------------|-5---------7----5-|
A|-7---5-7---5-7---5-5---5-|-3----5----5----3-|
E|-0-----0-----0-----7-----|------3-----------|

P.M. P.M. P.M.
|-----| |-----| |-----|
e|-----------------|-----------------|
B|-----------------|-----------------|
G|-----------------|-----------------|
G|-------9-------9-|-------9---7---7-|
E|-------7-------7-|-------7---5---5-|
A|-0-0-0---0-0-0---|-0-0-0-----------|


P.M. P.M. P.M.
|-----| |-----| |-----|
e|-----------------|-----------------|
B|-----------------|-----------------|
G|-----------------|-----------------|
G|-------9-------9-|-------9---5---7-|
E|-------7-------7-|-------7---3---5-|
A|-0-0-0---0-0-0---|-0-0-0-----------|


P.M. P.M. P.M.
|-----| |-----| |-----|
e|-----------------|-----------------|------------------|
B|-----------------|-----------------|------------------|
G|-----------------|-----------------|-5----------------|
G|-------9-------9-|-------9---12--9-|-5---------7----5-|
E|-------7-------7-|-------7---10--7-|-3----5----5----3-|
A|-0-0-0---0-0-0---|-0-0-0-----------|------3-----------|



-Interlude-
=Guitars I & II=
______________________________________________________________
e|---------------------|-----------------------------------| |
B|---------------------|-----------------------------------| |
G|---------------------|-----------5\4---2-----------------| |
D|---------------------|-----------3\2---4-----------------| |
A|---------------------|-----------------------------------| |
E|-0-0-0-0-0-0-0-0-0-0-|-0-0-0-0-0-------------------------| |
|
e|---------------------|--------------| REPEAT |
B|---------------------|--------------| REPEAT |
G|---------------------|------------5-| REPEAT |
D|---------------------|------------3-| REPEAT |
A|---------------------|--------------| REPEAT |
E|-0-0-0-0-0-0-0-0-0-0-|-0-0----------| REPEAT |
=============================================================|
|
e|-------------------------|-------------|--- |
B|-------------------------|-------------|--- |
G|-------------------------|-------------|--- |
D|-------------------------|-------------|--- |
A|-7-5---5-----------------|-7-5---5-----|--- |
E|-----7---7-6-5-3-5-0-3-5-|-----7---7-6-|--- |
|
e|-----------------------| |
B|-----------------------| |
G|-----------------------| |
D|-----------5---6-----5-| |
A|-----------3---4-----7-| |
E|------5----------------| |
=============================================================|
e|-----------------|------------------------| REPEAT |
B|-----------------|------------------------| REPEAT |
G|-----------------|------------------------| REPEAT |
D|-----------------|----------5-----6-----7-| REPEAT |
A|---------8-7-5-7-|----------3-----4-----5-| REPEAT |
E|-0-0-5-7---------|-0--0--0-----0-----0----| REPEAT |
_____________________________________________________________|

solo

=Guitar II=

e|----------------------|-------14-12-|
B|-------------------14-|----13-------|
G|----------14----13----|-12----------|
D|-------13----12-------|-------------|
A|----12----------------|-------------|
E|----------------------|-------------|

e|-15p12-12-17p12-12-15p14-12-17p15-12-|
B|-------------------------------------|
G|-------------------------------------|
D|-------------------------------------|
A|-------------------------------------|
E|-------------------------------------|

e|-15p14-12-17p15-12-15p14-12-17p15-12-|
B|-------------------------------------|
G|-------------------------------------|
D|-------------------------------------|
A|-------------------------------------|
E|-------------------------------------|

e|-15p14-12-17p15-12-15p14-12-17p15-12-|
B|-------------------------------------|
G|-------------------------------------|
D|-------------------------------------|
A|-------------------------------------|
E|-------------------------------------|

e|-15p14-12-17p15-12-15p14-12-17p15-12-|
B|-------------------------------------|
G|-------------------------------------|
D|-------------------------------------|
A|-------------------------------------|
E|-------------------------------------|

e|-------------------------------------|
B|-15b(1)------------------15b(1)------|
G|-------------------------------------|
D|-------------------------------------|
A|-------------------------------------|
E|-------------------------------------|

e|-------------------------------------|
B|-15b(1)---15b(1)---15b(1)---15b(.5)~~|
G|-------------------------------------|
D|-------------------------------------|
A|-------------------------------------|
E|-------------------------------------|

e|-12-------------------12-------------|
B|----15-p-12------12------15p12-12----|
G|-----------------14b(1)--------14b(1)|
D|-------------------------------------|
A|-------------------------------------|
E|-------------------------------------|


e|-12-------------------12-------------|
B|----15-p-12------12------15p12-12----|
G|-----------------14b(1)--------14b(1)|
D|-------------------------------------|
A|-------------------------------------|
E|-------------------------------------|


e|-12-------------------12-------------|
B|----15-p-12------12------15p12-12----|
G|-----------------14b(1)--------14b(1)|
D|-------------------------------------|
A|-------------------------------------|
E|-------------------------------------|


e|-12-------------------12-------------|
B|----15-p-12------12------15p12-12----|
G|-----------------14b(1)--------14b(1)|
D|-------------------------------------|
A|-------------------------------------|
E|-------------------------------------|


e|-15p12-------------------------------|
B|-------15-12----12--15p12------------|
G|-------------14-----------14-12----12|
D|--------------------------------14---|
A|-------------------------------------|
E|-------------------------------------|


e|-------------------------------------|
B|-------------------------------------|
G|-14-p-12-----------------------------|
D|---------14---12---------------------|
A|-----------------14--12---10---------|
E|-------------------------------12\---|<-Slide continued on next bar


e|-------------------------------------|
B|-------------------------------------|
G|-----------------------------------7-|
D|--------------7--9-p-7-----7--9--9---|
A|-----5--/--9------------9------------|
E|-/7----------------------------------|


e|----------------------------19-19-19-|
B|-------------------------------------|
G|---9b(1)---9b(1)---9b(1)\------------|
D|-------------------------------------|
A|-------------------------------------|
E|-------------------------------------|

Trem|---------------------------------------|
e|-22-19-19-19-19-19-22-19-19-19-19-19-19-19-|
B|-------------------------------------------|
G|-------------------------------------------|
D|-------------------------------------------|
A|-------------------------------------------|
E|-------------------------------------------|


e|-22b(1)------22b(1)r------------19---|
B|-------------------------------------|
G|-------------------------------------|
D|-------------------------------------|
A|-------------------------------------|
E|-------------------------------------|


e|-22p19----19----------------------19-|
B|-------22----22-19-22p19----19-22----|
G|-------------------------21----------|
D|-------------------------------------|
A|-------------------------------------|
E|-------------------------------------|


e|-22p19----19----------------------19-|
B|-------22----22-19-22p19----19-22----|
G|-------------------------21----------|
D|-------------------------------------|
A|-------------------------------------|
E|-------------------------------------|


e|-22p19----19----------------------19-|
B|-------22----22-19-22p19----19-22----|
G|-------------------------21----------|
D|-------------------------------------|
A|-------------------------------------|
E|-------------------------------------|


e|-22p19-------------------------------|
B|-------22---19\18-19-22\19-----------|
G|---------------------------21-19---19|
D|---------------------------------21--|
A|-------------------------------------|
E|-------------------------------------|


e|----------------------------------12-|
B|-----------------------------/14-----|
G|-21^B(1.5)--21b(1)-21b(.5)/----------|
D|-------------------------------------|
A|-------------------------------------|
E|-------------------------------------|


e|-15p12-14p12----12-15p12-14p12----12-|
B|-------------14----------------14----|
G|-------------------------------------|
D|-------------------------------------|
A|-------------------------------------|
E|-------------------------------------|


e|-15p-12--14-p-12-----12-15-p-12-14p12|
B|------------------14-----------------|
G|-------------------------------------|
D|-------------------------------------|
A|-------------------------------------|
E|-------------------------------------|

e|-15-19p15h15--19p15p12-19p15p12-19p15p12-|
B|-----------------------------------------|
G|-----------------------------------------|
D|-----------------------------------------|
A|-----------------------------------------|
E|-----------------------------------------|

e|-19p15p12-19p15p12-19p15p12-19p15p12-|
B|-------------------------------------|
G|-------------------------------------|
D|-------------------------------------|
A|-------------------------------------|
E|-------------------------------------|

e|-17p14-0-17p14-0-17p14-0-17p14-0-|
B|---------------------------------|
G|---------------------------------|
D|---------------------------------|
A|---------------------------------|
E|---------------------------------|

e|-22p19-0-22p19-0-22p19-0-22p19-22-|
B|----------------------------------|
G|----------------------------------|
D|----------------------------------|
A|----------------------------------|
E|----------------------------------|

e|-22b(1)-22b(1)-|-22b(1)(hold)|r(22)-------|
B|---------------|-------------|------------|
G|---------------|-------------|------------|
D|---------------|-------------|------------|
A|---------------|-------------|------------|
E|---------------|-------------|------------|



Related Metallica Tabs

The Thorn Within tabs
Enter Sandman (complete And Original!!) tabs
For Whom The Bell Tolls (whole Song) tabs
March Of The Dead tabs
Fade To Black *complete* tabs
Last Caress tabs
Ecstacy Of Gold tabs
Mama Said Acoustic tabs
Dont Touch Me There tabs
Sad But True Bass tabs
Harvester Of Sorrow tabs
Twist Of Cain tabs
53rd And 3rd Ramones Cover tabs
Anestheia Correct (rate) tabs
Kirk Hammet Slide Solo On S&m Solo tabs
Nothing Else Matters Acoustic tabs
For Whom The Bell Tolls (correction From The First 2 1/2 Rated Tab) tabs
Little Boy Youre Going To Hell tabs
Ronnie tabs
Batery tabs


Guitar Tabs




All tabs are property and copyright of their owners. All tabs provided for educational purposes only. Privacy Policy, DMCA, Links