Metallica

For Whomb The Bell Tolls Tabs



More from Metallica

Metallica Tabs
Metallica Chords
Metallica Bass
Metallica Lyrics




Figure 1
e----------------------------------------|
B----------------------------------------|
G----------------------------------------| x8
D-------------------------4-4--4-4--(2)--|
A-------------------------4-4--4-4--(2)--|
E-------------------------2-2--2-2--(0)--|


e----------------------------------------|
B----------------------------------------|
G----------------------------------------| x4(w/out bass)
D-------------------------4-4--4-4--(2)--|
A-------------------------4-4--4-4--(2)--|
E-------------------------2-2--2-2--(0)--|

Riff 1:
e----------------------------------------|
B----------------------------------------|
G--------------------------------2-------|
D-2-5-4-3-2-5-4-3-2-5-4-3-2-4-5--2-------|
A-2-5-4-3-2-5-4-3-2-5-4-3-2-4-5--0-------|
E-0-3-2-1-0-3-2-1-0-3-2-1-0-2-3----------|
. . . . . . . . . . . . . . .
x2
e----------------------------------------| |--------|
B----------------------------------------| |--------|
G--------------------------------4-------| Then: |--------|(Part of Rhy.
D-2-5-4-3-2-5-4-3-2-5-4-3-2-4-5--4-------| |-(2)----| Figure 2)
A-2-5-4-3-2-5-4-3-2-5-4-3-2-4-5--2-------| |-(2)----|
E-0-3-2-1-0-3-2-1-0-3-2-1-0-2-3----------| |-(0)----|
. . . . . . . . . . . . . . .
End Riff 1

Then Kirk plays
e----------------------------------------|
B-8---7-----7-8---7----------------------|
G---9---7-9-----9---7-9------------------| x16
D----------------------------------------|
A----------------------------------------|
E----------------------------------------|

OR

e----------------------------------------|
B----------------------------------------|
G-12-9-11----9-11-12-9-11----9-----------| x16
D---------12--------------12-------------|
A----------------------------------------|
E----------------------------------------|


With Rhy. Figure 2 as background:
e----------------------------------------|
B----------------------------------------|
G----------------------------------------|
D-(2)---------------(5)------5-----------|
A-(2)---------------(5)------5-----------|
E-(0)---------------(3)------3-----------|
.
x2

e----------------------------------------|
B----------------------------------------|
G----------------------------------------|
D-(2)---------------(5)-----(10)-----(7)-|
A-(2)---------------(5)-----(10)-----(7)-|
E-(0)---------------(3)------(8)-----(5)-|

End Rhy. Figure 2

Chorus:
e----------------------------------------|
B----------------------------------------|
G------------------------------3---------|
D-------5--------7--------5----3---4-----|
A-------5--------7--------5----1---4-----|
E-0-0-0-3--0-0-0-5--0-0-0-3--------2-----|
pm----| pm----| pm----|

e----------------------------------------|
B----------------------------------------|
G-------------------------------3--------|
D-------5--------7--------5-----3--4--3--|
A-------5--------7--------5-----1--4--3--|
E-0-0-0-3--0-0-0-5--0-0-0-3-0-0----2--1--|
pm----| pm----| pm----| pm--|

Play Rhy. Figure 2 (x2) for verse

Lyrics:
Make his fight on the hill in the early day. Constant chill deep inside.

Shouting gun, on they run, through the endless gray. On they fight, for theyre
right. Yes, but whos to say?

For a hill, men would kill. Why? They do not know. Suffered wounds test their
pride.

Men of five, still alive, through the raging glow. Gone insane from the pain
that the surely know.

To Chorus

Interlude:

Gtr. 2 plays Riff A, which is under the Gtr. 1 part
e----------------------------------------|
B----------------------------------------|
G-12-9-11----9---------------------------| Gtr. 1
D---------12---11-12-9-11----9-----------|
A-------------------------12---10--------|
E----------------------------------------|
pm------------------------|

e----------------------------------------|
B----------------------------------------|
G----------------------------------------| Gtr. 2
D-(2)--------------------------------(2)-|
A-(2)--------------------------------(2)-|
E-(0)--------------------------------(0)-|


e----------------------------------------|
B----------------------------------------|
G-12-9-11----9---------------------------| Gtr. 1
D---------12---11-12-9-11----9-----------|
A-------------------------12---10--------|
E----------------------------------------|
pm------------------------|

e----------------------------------------|
B----------------------------------------|
G----------------------------------------| Gtr. 2
D-(2)------5---5-5-5--5--5-5-5------(2)--|
A-(2)------5---5-5-5--5--5-5-5------(2)--|
E-(0)------3---3-3-3--3--3-3-3------(0)--|
. .
pm--------------------|

e----------------------------------------|
B----------------------------------------|
G-12-9-11----9---------------------------| Gtr. 1
D---------12---11-12-9-11----9-----------|
A-------------------------12---10--------|
E----------------------------------------|
pm------------------------|

e----------------------------------------|
B----------------------------------------|
G----------------------------(4)---------|Gtr. 2
D-(2)------------------------(4)---------|
A-(2)------------------------(2)---------|
E-(0)------------------------------------|


Gtr 3 plays Riff B w/ Riff A as background:

Riff B:
e-----------7------------7~~~~~~~~~~~~~~~|
B-8---7-------8---10-7-8-----------------|
G---9---7-9-----9------------------------|
D----------------------------------------|
A----------------------------------------|
E----------------------------------------|


e-----------7------------7---------------|
B-8---7-------8---10-7-8---8~~~~~~~~~~~~~|
G---9---7-9-----9------------------------|
D----------------------------------------|
A----------------------------------------|
E----------------------------------------|

e-----------7------------7~~~~~~~~~~~~~~~|
B-8---7-------8---10-7-8-----------------|
G---9---7-9-----9------------------------|
D----------------------------------------|
A----------------------------------------|
E----------------------------------------|


Gtr. 4 plays Riff C w/ Riff A as background:

Riff C:
e----------------------------------------|
B----------------------------------------|
G----------------------------------------| x3
D-9----11----9----12-9-11----9-----------|
A---12----12---10---------12---10--------|
E----------------------------------------|


To Verse 2:

Lyrics:

Take a look to the sky just before you die. Its the last time he will.

Blackened roar, massive roar fills the crumbling sky. Shattered goal fills
his soul w/ a ruthless cry.

Stranger now are his eyes, to this mystery. He hears the silence so loud.

Crack of dawn, all is gone, except the will to be. Now they see what will be,
blinded eyes to see.

To Rhy. Fig. 3 & 4 (play simultaneously)

Rhy. Fig. 3 w/ tremolo bar effects (put em where you think sounds best):

e-----------------------------------------|
B-----------------------------------------|
G-----------------------------------------| Repeat until fade
D(9)---11-(11)---(9)---11(11)---12-(12)-|
A(7)----9--(9)---(7)----9--(9)---10-(10)-|
E(0)-------------(0)---------------------|

Rhy. Fig. 4

e-----------------------------------------|
B-----------------------------------------|
G-----------------------------------------| Repeat until fade
D-(2)---4-(4)---(2)---4-(4)---5-(5)-------|
A-(2)---4(4)---(2)---4-(4)---5-(5)-------|
E-(0)---2(2)---(0)---2-(2)---3-(3)-------|



Related Metallica Tabs

Thorn Within tabs
Disposable Heroes Solo tabs
The House Jack Built tabs
Ecstasy Of Gold tabs
Slither tabs
The God that Fail tabs
Jump In The Fire(whole Song) tabs
Phantom Lord tabs
Sanitarium tabs
Jump In The Fire (intro) tabs
Welcome Home tabs
Fixxxer tabs
Fade To Black Bass And Guitar Tab 100% Complete tabs
Master Of Pupets tabs
Noise tabs
The Shortest Straw tabs
Garage Days Re-visited Album tabs
Cretin Hop tabs
Mama Said Acoustic tabs
Jump In The Fire Solo tabs


Guitar Tabs




All tabs are property and copyright of their owners. All tabs provided for educational purposes only. Privacy Policy, DMCA, Links