Metallica

Fade To Black (interlude) Bass Tabs



More from Metallica

Metallica Tabs
Metallica Chords
Metallica Bass
Metallica Lyrics



G|-----------------------------------------------------------------------
D|-----------------------------------------------------------------------
A|0--0-0--------5------3--3-3----------5---0---0--0--5--7------------3--2
E|--------0-0-3----------------0-0-3-------------------------0-0-0-0-----

G|-------------------------------------------------------------
D|------------------------------------------------------------- X2
A|0--0-0--------5------3--3-3----------5---0---0--0------------
E|--------0-0-3----------------0-0-3------------------3--2----0


Thats my favorite part of the song



Related Metallica Bass Tabs

Anesthesia (pulling Teeth) bass
We Did It Again bass
Die Die My Darling bass
Black Night bass
Jason Newstaed And Kirk Hammett Solo bass
Sad But True bass
Seek & Destroy bass
Cliff Burton Memorial R.i.p bass
Ain't My Bitch bass
And Justice For All -album bass
Cunning Stunts Bass Solo bass
Master Of Puppets Bass Tab!!!!! bass
Breadfan bass
Holier Than Thou bass
The Wait bass
Fuel bass
Some Kind Of Monster Intro bass
Devils Dance bass
Live Shit Binge And Purge Mexico City Disc 1 bass
Master Of Puppets(improved) bass


Guitar Tabs




All tabs are property and copyright of their owners. All tabs provided for educational purposes only. Privacy Policy, DMCA, Links