Metallica

Enter Sandman Solo Tabs



More from Metallica

Metallica Tabs
Metallica Chords
Metallica Bass
Metallica Lyrics



- METALLICA -
ENTER SANDMAN SOLO
TABBED BY: STEVEN SAUNDERS
DATE: FRI/28/03
HERETIC_304@YAHOO.COM


THIS SOLO IS 100% CORRECT! SO NO ARGUMENTS. (ALL BENDS ARE FULL!)

Eb|------------------------------------------------------------------------
Bb|--15--15--15--12-------12----------12--12---------15b--15b---(15)------
Gb|------------------14b--------14b------------14--------------------------
Db|------------------------------------------------------------------------
Ab|------------------------------------------------------------------------
Eb|------------------------------------------------------------------------

Eb|------------------------------------------------------------------------
Bb|------------------------------------------------------------------------
Gb|--1214--14--14/12--12--1214--14--14/12--12--12---14p12----------------
Db|----------------------------------------------------------14--14p12-----
Ab|--------------------------------------------------------------------14--
Eb|------------------------------------------------------------------------

Eb|-------------------------12-12-12----12-12-12---12-12-12---12-12-12-----
Bb|----------------------15b---------15b--------15b--------15b-------------
Gb|------------------------------------------------------------------------
Db|------------------------------------------------------------------------
Ab|--14p12/10--------------------------------------------------------------
Eb|------------12--(12)---------------------------------------------------

Eb|-----12-12-12h15p12--12h15p12--12h15p12-12-15-12-12-14-14---------------
Bb|--15b-------------------------------------------------------------------
Gb|------------------------------------------------------------------------
Db|------------------------------------------------------------------------
Ab|------------------------------------------------------------------------
Eb|------------------------------------------------------------------------

Eb|--17p14----17p14-----17p14--19p15----19p15-----19p15---21p17----21p17---
Bb|--------15-------15---------------17-------17----------------17-------17
Gb|------------------------------------------------------------------------
Db|------------------------------------------------------------------------
Ab|------------------------------------------------------------------------
Eb|------------------------------------------------------------------------

Eb|--21p17----22b----------------------------------------------------------
Bb|--------17-----9b---9b---9b--9b--9b-----------------10---10--8--7-------
Gb|---------------9b---9b---9b--9b--9b---7--9-------7----------------9-----
Db|--------------------------------------------7h9-------------------------
Ab|------------------------------------------------------------------------
Eb|------------------------------------------------------------------------

Eb|------------------------------------------------------------------------
Bb|--7/87----7------------------------------------------------------------
Gb|--------9----9--7-----7----9p7-----------------------------------16b----
Db|-------------------9-----------9p7----7--9--7---------------------------
Ab|------------------------------------9----------9--8--7------------------
Eb|--------------------------------------------------------10--7/----------

Eb|------------------------------------------------------------------------
Bb|------------------------------------------------------------------------
Gb|--14--------14--16b--14-------14--16b--14-----14--16b--14-----14--16b---
Db|------16-----------------16----------------16-------------16------------
Ab|------------------------------------------------------------------------
Eb|------------------------------------------------------------------------
trem. bar *grad. release
Eb|------------------------------------------------------------------------
Bb|-------------------------17------17-------17----------------------------
Gb|--14----------14---16b------16b-----16b-------16b----/--/--/--/----
Db|------16--16------------------------------------------------------------
Ab|------------------------------------------------------------------------
Eb|------------------------------------------------------------------------

Eb|--21p17-----21p17----21p17-----21p17-----21p17----21p17------22b--22-22-
Bb|---------17-------17-------17--------17--------17-------17--------------
Gb|------------------------------------------------------------------------
Db|------------------------------------------------------------------------
Ab|------------------------------------------------------------------------
Eb|------------------------------------------------------------------------
vib. w/bar
Eb|--22b--22-22-22b--(22)-------------------------------------------------
Bb|-------------------------10p8p7-----------------------------------------
Gb|---------------------------------9--9p7---------------------------------
Db|----------------------------------------9--9p7---5--7b--5---------------
Ab|----------------------------------------------------------7--(7)--5h7---
Eb|------------------------------------------------------------------------
vib. w/bar (whah off) trem. bar this is played with alot FDBK
Eb|------------------------------------------------------------------------
Bb|------------------------------------------------------------------------
Gb|------------------------------------------------------------------------
Db|------------------------------------------------------------------------
Ab|--4--(4)------0---2-------------(2)--------(2)--------------------------
Eb|----------------------------------------------------0-------------------

THATS IT ONE OF THE GREATEST SOLOS EVER BY METALLICA REMEMBER, PLAY TILL
IT BLEEDS!


Related Metallica Tabs

Shoot me again tabs
Valley Of Misery tabs
March Of The Dead tabs
The God that Fail tabs
Bad Seed tabs
Hate Train tabs
We Did It Again tabs
St Anger Album tabs
Seek And Destroy tabs
For Whom The Bell Tolls tabs
I Disapear (version 2) tabs
And Justice For All tabs
53 and 3rd tabs
Sad But True (begining) tabs
Noise tabs
Motor Breath tabs
Invisible Kid tabs
Black Album Album tabs
Nightmare (Be Thy Name) tabs
Purify Bass tabs


Guitar Tabs




All tabs are property and copyright of their owners. All tabs provided for educational purposes only. Privacy Policy, DMCA, Links