Metallica

Enter Sandman (100% Correct) Bass Tabs



More from Metallica

Metallica Tabs
Metallica Chords
Metallica Bass
Metallica Lyrics




Enter Sandman
Metallica
Black Album
Jason Newsted



tabbed by FALTA FLAKES


INTRO All four parts of the intro change when the guitars change. Just follow
them.
part 1 part 2 part 3
G------------------- -------------------- -------------------
D------------------- -------------------- -------------------
A------------------- X4 ----------------7--- X4 ------7------------ X4
E--0-0-0-0-0-0-0-0-- --0-0-0-0-0-0-0----- --0-0---6-0-0-0-1--

part 4
G-------------------
D-------------------
A------7------------ X8
E--0-0---6-5-0-0-1--

PRE VERSE ALTHOUGH THIS IS DIFFERENT THAN ALL OTHER TABS BELIEVE ME THIS
IS 100 % CORRECT.
WATCH PART 1 OF A YEAR AND A HALF IN THE LIFE OF METALLICA. IT SHOWS JASON PLAYING
THIS WHILE HE IS RECORDING SANDMAN.
part 1 part 2
G--------------------- -----------------
D--------------------- -----------------
A--------------------- X3 ----------------- X1
E--0-0-0-12-0-3-4-5-- --3-0-2-0-2-3-2--
^12 not 1-2
VERSE
part 1 part 2
G------------------- -------------------------------
D------------------- -------------------------------
A------------------- X2 ------------------------------- X1
E--0-0-0-0-0-0-0-1--(or 1/2) --0-0-0-0-0-0-0-3-0-2-0-2-3-2--

PRE CHORUS
part 1 part 2
G------2------ --------------------
D----4-------- --------------------
A--------3-2-- X3 ---0---0---2-------- X1
E--2---------- -----2---2---2-3-4--

CHORUS
part 1 part 2
G------------------- ---------------------
D------------------- ---------------------
A----------3-2-2-2-- X3 --------------------- X1
E--2-2-2-2---------- --0-2-0-2-0-2-0-3-2--

part 1 part 3
G------------------- ---------------------
D------------------- ---------------------
A----------3-2-2-2-- X1 --------------------- X1
E--2-2-2-2---------- --0-2-0-2-0-2-0-2-3--

SOLO
pre verse part 1 X3
pre verse part 2 X1
pre chorus part 1 X3
pre chorus part 2 X1
chorus part 1 X3
chorus part 2 X1
chorus part 1 X1
chorus part 3 X1

BRIDGE
part 1
G----------------------
D----------------------
A-------------------7-- X8
E--0~-0-0-0-0-0-0-0----

part 3 part 4
G------2------ --------------------
D----4-------- --------------------
A--------3-2-- X3 ---0---0---2-------- X1
E--2---------- -----2---2---2-3-4--

CHORUS
part 1 part 2
G------------------- ---------------------
D------------------- ---------------------
A----------3-2-2-2-- X3 --------------------- X1
E--2-2-2-2---------- --0-2-0-2-0-2-0-3-2--

part 1 part 3
G------------------- ---------------------
D------------------- ---------------------
A----------3-2-2-2-- X1 --------------------- X1
E--2-2-2-2---------- --0-2-0-2-0-2-0-2-3--

R E P E A T C H O R U S A G A I N (end on E--0~-)

OUTRO
part 1 part 2
G--------------------- -----------------
D--------------------- -----------------
A--------------------- X4 ----------------- X1
E--0-0-0-12-0-3-4-5-- --3-0-2-0-2-3-2--

part 3 part 4
G------------------- -------------------
D------------------- -------------------
A------7------------ X4 ----------------7-- KEEP PLAYING (FADE OUT)
E--0-0---6-5-0-0-1-- --0-0-0-0-0-0-0----

IF YOU'RE PLAYING THIS LIVE END ON:
G----------------------------------------
D----------------------------------------
A----------------------------------------
E--3-0-2-0-2-3-2222222222222222222222-0--


ENJOY. PLESE RATE.
METAL UP UR ASSSSSSS!!!!!!!!!!!!!!!!!!!!!!!!!!!!!!!!!!!!!!!!!!!!!!!!!!!!!!!!



Related Metallica Bass Tabs

Holier Than Thou bass
London Dungeon bass
Damage Inc bass
For Whom The Bell Tolls(improved) bass
Nothing Else Matters Tab bass
Live Shit bass
So F***ing What bass
The Four Horsemen (live) bass
Cunning Stunts Bass Solo bass
Fixxer bass
James Hetfield Locker Room Song bass
Turn The Page bass
We Did It Again bass
All Within My Hands bass
Sad But True bass
53rd And 3rd Ramones Cover bass
Fixxxer bass
Battery bass
Slither bass
Hit The Lights bass


Guitar Tabs




All tabs are property and copyright of their owners. All tabs provided for educational purposes only. Privacy Policy, DMCA, Links