Metallica

Donnington 95 Riff Tabs



More from Metallica

Metallica Tabs
Metallica Chords
Metallica Bass
Metallica Lyrics

Donnington '95 Riff
written by Metallica
as performed at Castle Donnington 8/7/95
tab by Phil Boyle; ibzrg470@apk.net


This is a really beautiful sounding piece played by James as an intro
to Welcome Home (Sanitarium).  If you don't have this bootleg, get it!!
This is probably my favorite bootleg I have.

tune down 1/2 step
eb---------------------------------------
Bb---------------------------------------
Gb--------------4--5---5----------5---5/4
Db-----5--4--5--5--7---7--------7---7-7/5
Ab-----7--5--7---------------------------
Eb--0----------------8---8-8--8----------

eb---------------------------
Bb---------------------------
Gb--4----4h5p42------2h4p2--
Db--5----5-------4----4-----4
Ab-----------------5---------
Eb----7----------------------

Play enitre thing twice.  After the second time through, start Sanitarium.
The tab doesn't quite do it justice, these are the right notes, but you
need to hear it to get the feel.

Related Metallica Tabs

Battery Live tabs
Let It Loose tabs
Master Of Pupets tabs
Seek & Destroy tabs
Call Of Kutulu tabs
The unnamed feeling tabs
Purify Bass tabs
Mistreated tabs
Metallica Medley Live At Mtv Tab tabs
One The Whole Thing tabs
Thorn Within tabs
One Intro tabs
Unforgiven 2 tabs
Cliff Burton Memorial tabs
My World Bass tabs
Trapped Under Ice tabs
Run To The Hills tabs
Fade To Black tabs
I Disappear Solo tabs
Whiskey In The Jar Part 1 tabs


Guitar Tabs




All tabs are property and copyright of their owners. All tabs provided for educational purposes only. Privacy Policy, DMCA, Links