Metallica

Die My Darling Bass Tabs



More from Metallica

Metallica Tabs
Metallica Chords
Metallica Bass
Metallica Lyrics




Metallica
Tabbed by JR
Tune down 1/2 step

Fig.1 (first without voice)
Gb:-----------------|-----------------|-----------------|-----------------:
Db:-----------------|-----------------|-----------------|-----------------:
Ab:-2-------2-------|-2-------2-------|-----------------|-----------------:
Eb:-----2-------2---|-----2-------2-2-|-3---3-3-3-3-3-3-|-2-2-2-2-2-2-2-2-:

Chorus: Repeat Fig.1 2 times with last bar variation: |-----------------:
|-----------------:
|-----------------:
|-2---2-2-2-3-2-0-:

Fill.1
Gb:-----------------|-----------------|-----------------|-----------------|
Db:-----------------|-----------------|-----------------|-----------------|
Ab:-----------------|---------7---7---|-2-2-2-2-2-2-2-2-|-2-2-0-0---------|
Eb:-0---0-0-0-0-0-0-|-0-0-0-0---0---0-|-----------------|---------2-2-1-1-|

Gb:-----------------|-----------------|-----------------:
Db:-----------------|-----------------|-----------------:
Ab:-----7-----7-7-7-|-----------------|-----------------:
Eb:-0---0-----------|-3-3-3-3-3-3-3-3-|-3---------------: end Fill.1

Fig.2
Gb:-----------------|-----------------|-----------------|-----------------:
Db:-----------------|-----------------|-----------------|-----------------:
Ab:-2-2-2-2-2-2-2-2-|-2-2-2-2-2-2-2-0-|-----------------|-5-5-5-5-4-4-4-4-:
Eb:-----------------|-----------------|-3---3-3-3-3-3-3-|-----------------:

Repeat Fig.2 6 times total
Repeat Chorus
Repeat Fill.1
Repeat Fig.2 6 times
Repeat Chorus
Repeat Fill.1

Ending:
Gb:-----------------|-----------------|-----------------|-----------------|
Db:-----------------|-----------------|-----------------|-----------------|
Ab:-2-------2-------|-2-------2-------|-2-------2-------|-2-------2-------|
Eb:-----2-------2---|-----2-------2---|-----2-------2---|-----2-------2---|

Gb:-----------------:
Db:-----------------:
Ab:-2---------------:
Eb:-----------------: end.



Related Metallica Bass Tabs

Am I Evil bass
Mexico City Guitar Solo bass
Battery bass
Fight Fire With Fire bass
Merciful Fate bass
London Dungeon bass
Aint My Bitch bass
And Justice For All -album bass
The unnamed feeling bass
Where The Wild Things Are bass
Enter Sandman (perfect) bass
Blues Jam bass
Sad But True bass
Anethesia)pulling Teeth bass
Prince Charming bass
Fuel bass
Don't Tread On Me bass
Ride The Lighning bass
To Live Is To Die bass
Shoot me again bass


Guitar Tabs




All tabs are property and copyright of their owners. All tabs provided for educational purposes only. Privacy Policy, DMCA, Links