Metallica

Die Die My Darlying Bass Tabs



More from Metallica

Metallica Tabs
Metallica Chords
Metallica Bass
Metallica Lyrics




Verse
G|---------------------------------------------------------------------------|
D|---------------------------------------------------------------------------|
A|-2--2--2--2--2--2--2--2----------------------------------------------------|
E|-------------------------3--3--3-3-3--2--2--2-2-2--------------------------|

Pre Chorus
G|-----------------------------------------------------------------|
D|-----------------------------------------------------------------|
A|---------------------------------2-2-2-2-2-2-2-2-2-2-2-2-2-2-2-2-|
E|-0-0-0-0-0-0-0-0-0-0-0-0-0-0-0-0---------------------------------|

Pre Chorus Continued
G|--------------------------------------------------------|
D|--------------------------------------------------------|
A|--------------------------------------------------------|
E|-0-0-0-0-0-0-0-0-0-0-0-0-0-0-0-0-4--4--4--4--4--4--4--4-|

Chorus
G|---------------------------------------------------------------------------|
D|---------------------------------------------------------------------------|
A|-2-2-2-2-2-2-2-2-2-2-2-2-2-2-2-2-----------------5--5-5--------------------|
E|---------------------------------3--3-3-3-3-3-3---------5-5-5--------------|



Related Metallica Bass Tabs

Ride The Lighning bass
The house that jack built bass
Green Hell bass
I Disappear bass
Motorbreath bass
The Small Hours-(5-string) bass
Saint Anger bass
Jump In The Fire bass
Shoot me again bass
Mama Said bass
Wherever I May Roam-live bass
The Struggle Within bass
Blackened bass
Battery bass
The Four Horsemen (live) bass
Fight Fire With Fire bass
2x4 bass
The Wait bass
Some Kind Of Monster bass
The Unforgiven bass


Guitar Tabs




All tabs are property and copyright of their owners. All tabs provided for educational purposes only. Privacy Policy, DMCA, Links