Metallica

Devil's Dance The Very Best Out Of The Metallica Book Bass Tabs



More from Metallica

Metallica Tabs
Metallica Chords
Metallica Bass
Metallica Lyrics




Intro:
:--------------------------------|--------------------------------|
:*-------------------------------|--------------------------------|
:*-------------------------------|--------------------------------|
:-6------0-------0-------0---3--|-0-------0---5---3---0---3---5--|

4 times
|--------------------------------|--------------------------------|
|--------------------------------|-------------------------------*|
|--------------------------------|-------------------------------*|
|-0-------0-------0-------0---3--|-0-------0---5---3---0---3---5--|

|--------------------------------|--------------------------------|
|--------------------------------|--------------------------------|
|--------------------------------|--------------------------------|
|-6------0-------0-------0---3--|-0-------0-------0-------0---3--|

|--------------------------------|--------------------------------|
|--------------------------------|*-------------------------------|
|--------------------------------|*-------------------------------|
|-0-------0---5---3---0---3---5--|-6------0-------0-------0---3--|

2 times
|--------------------------------|--------------------------------|
|-------------------------------*|--------------------------------|
|-------------------------------*|--------------------------------|
|-0-------0---5---3---0---3---5--|-0-------0-------0-------0---3--|

|--------------------------------|--------------------------------|
|--------------------------------|--------------------------------|
|--------------------------------|--------------------------------|
|-0-------0---5---3---0---3---5--|-6------0-------0-------0---3--|

|--------------------------------|--------------------------------|
|--------------------------------|--------------------------------|
|--------------------------------|--------------------------------|
|-0-------0---5---3---0---3---5--|-0-------0-------0-------0---3--|

|--------------------------------:
|--------------------------------:
|--------------------------------:
|-0-------0---5--b3---0--b3---0--: end Intro

Verse 1, 2, 3:
3 times
:--------------------------------|--------------------------------|
:*------------------------------*|--------------------------------|
:*------------------------------*|--------------------------------|
:-0-0-0-0----0-0-0-0-0--0--0--0--|-0-0-0-0----0-0-0-0-0-b5-----3--|

|--------------------------------|--------------------------------|
|--------------------------------|--------------------------------|
|--------------------------------|--------------------------------|
|-3-3-3-3------3-3-3-3--3--3--3--|-3-3-3-3------3-3-3-3--3--3--3--|

|--------------------------------|--------------------------------|
|--------------------------------|--------------------------------|
|--------------------------------|--------------------------------|
|-0-0-0-0----0-0-0-0-0--0--0--0--|-0-0-0-0----0-0-0-0-0-00--0--0--|

|--------------------------------|--------------------------------|
|--------------------------------|--------------------------------|
|--------------------------------|--------------------------------|
|-3-3-3-3------3-3-3-3--3--3--3--|-2-2-2-2------2-2-2-2-2--2-2-2--|

|--------------------------------|--------------------------------: end
|--------------------------------|--------------------------------:
|--------------------------------|--------------------------------: V.
|-6------0-------0-------0---3--|-0-------0---5--b3---0--b3---0--:

3rd time substitute 6°bar with: |--------------------------------|
|--------------------------------|
You must consider the first |--------------------------------|
bar is repeats for 3 bars |-3-3-3-3------3-3-3-3-b5-----3--|

and substitute 10°bar with: |--------------------------------|
|-----------------------/-7---7--|
|---------------------4---0---0--|
|-2---2---2---2---2--------------|

Chorus 1:
2 times
:--------------------------------|--------------------------------|
:*-------------------------------|-------------------------------*|
:*-------------------------------|-------------------------------*|
:-6-6---6-6----6-6-6-6--6--5--3--|-0---0---3-------3-------0---3--|

|--------------------------------|--------------------------------|
|--------------------------------|--------------------------------|
|--------------------------------|--------------------------------|
|-6-6---6-6----6-6-6-6--6--5--3--|-0---0---3-------3-------0---3--|

|--------------------------------|--------------------------------|
|--------------------------------|--------------------------------|
|--------------------------------|--------------------------------|
|-6------------------------------|-6------0-------0-------0---3--|

|--------------------------------|--------------------------------|
|--------------------------------|--------------------------------|
|--------------------------------|--------------------------------|
|-0-------0---5---3---0---3---5--|-0-------0-------0-------0---3--|

|--------------------------------:
|--------------------------------:
|--------------------------------:
|-0-------0---5--b3---0--b3---0--: end Chorus 1

Play Verse 2

Chorus 2:
2 times
:--------------------------------|--------------------------------|
:*-------------------------------|-------------------------------*|
:*-------------------------------|-------------------------------*|
:-6-6---6-6----6-6-6-6--6--5--3--|-0---0---3-------3-------0---3--|

|--------------------------------|--------------------------------|
|--------------------------------|--------------------------------|
|--------------------------------|--------------------------------|
|-6-6---6-6----6-6-6-6--6--5--3--|-0---0---3-------3-------0---3--|

|--------------------------------|--------------------------------|
|--------------------------------|*-------------------------------|
|--------------------------------|*-------------------------------|
|-6------------------------------|-0-0-0-0-0------0-0----0-0------|

2 times
|--------------------------------:
|-------------------------------*:
|-------------------------------*:
|-0-0-0-0-0------0-0----0-0----0-: end Chorus 2

Guitar Solo:
4 times 4 times
:--------------------------------|--------------------------------:
:*------------------------------*|*------------------------------*:
:*------------------------------*|*------------------------------*:
:-3-3-3-3------3-3-3-3--3--3--3--|-0-0-0-0----0-3------0---0---0--:

Chorus:
2 times
:--------------------------------|--------------------------------|
:*-------------------------------|-------------------------------*|
:*-------------------------------|-------------------------------*|
:-6-6---6-6----6-6-6-6--6--5--3--|-0---0---3-------3-------0---3--|

|--------------------------------|--------------------------------|
|--------------------------------|--------------------------------|
|--------------------------------|--------------------------------|
|-6-6---6-6----6-6-6-6--6--5--3--|-0---0---3-------3-------0---3--|

|--------------------------------:
|--------------------------------:
|--------------------------------:
|-5------------------------------: end Chorus

Fill 1:
3 times
:--------------------------------|--------------------------------|
:*-------------------------------|-------------------------------*|
:*-------------------------------|-------------------------------*|
:-6------0-------0-------0---3--|-0-------0---5---3---0---3---5--|

|--------------------------------|--------------------------------:
|--------------------------------|--------------------------------:end
|--------------------------------|--------------------------------:
|-6------0-------0-------0---3--|-6---------------5---5----------:Fill

Play Verse 3

Last Chorus:
2 times
:--------------------------------|--------------------------------|
:*-------------------------------|-------------------------------*|
:*-------------------------------|-------------------------------*|
:-6-6---6-6----6-6-6-6--6--5--3--|-0---0---3-------3-------0---3--|

|--------------------------------|--------------------------------|
|--------------------------------|--------------------------------|
|--------------------------------|--------------------------------|
|-6-6---6-6----6-6-6-6--6--5--3--|-0---0---3-------3-------0---3--|

|--------------------------------|--------------------------------|
|--------------------------------|--------------------------------|
|--------------------------------|--------------------------------|
|-6------------------------------|-6------0-------0-------0---3--|

|--------------------------------|--------------------------------|
|--------------------------------|--------------------------------|
|--------------------------------|--------------------------------|
|-0-------0---5--b3---0--b3---0--|-6-6---6-6----6-6-6-6--6--5--3--|

|--------------------------------|--------------------------------:
|--------------------------------|--------------------------------:
|--------------------------------|--------------------------------:
|-0---0---3-------3-------0---3--|-6------------------------------: You're Done



Related Metallica Bass Tabs

Welcome Home bass
Unforgiven 2 bass
The Outlaw Torn bass
Cool Cliff Burton Solo!! bass
I Disappear bass
Orion Bass Interude/solo bass
Leper Messiah bass
Black Album Tab bass
To Live Is To Die bass
All Within My Hands bass
Bleeding Me bass
Fade To Black (revised Version) bass
Breadfan bass
Wherever I May Roam-live bass
Jason Newstaed And Kirk Hammett Solo bass
Tuesday's Gone bass
Mama Said bass
Little Boy You E Going To Hell bass
Little Wing bass
Sweet Amber bass


Guitar Tabs




All tabs are property and copyright of their owners. All tabs provided for educational purposes only. Privacy Policy, DMCA, Links