Metallica

Cop Killer Bass Tabs



More from Metallica

Metallica Tabs
Metallica Chords
Metallica Bass
Metallica Lyrics




G----------------------
D----------------------
A----------------------
E-3-0-0--3-0-0--3-0----

MAIN RIFF
G--------------------------------
D--------7-7-5--------7-7-5------
A-0-5-7---------0-5-7------------
E--------------------------------

RIFF
G--------------------------------
D--------------------------------
A--------------------------------
E-0-0-0-0-0-0-0-0-0-0-0-0-0-0----

RIFF-VERSE
G-------------
D-------------
A-------------
E-0-----3-----

G-------------
D-------------
A------7--5---
E-0-----------



Related Metallica Bass Tabs

Anethesia)pulling Teeth bass
Enter Sandman (intro) From The Book bass
God Of Thunder bass
The Unforgiven bass
Bad Seed bass
Bass/guitar Doodle In Paris bass
The Unforgiven Intro bass
The Small Hours-(5-string) bass
Cunning Stunts: Bass/guitar Doodle bass
Pulling bass
Of wolf and man bass
Black Album Tab bass
Blues Jam bass
Astronomy bass
Frantic bass
Until It Sleeps bass
Creeping Death bass
Some Kind Of Monster bass
Hit The Lights bass
Fade To Black (interlude) bass


Guitar Tabs




All tabs are property and copyright of their owners. All tabs provided for educational purposes only. Privacy Policy, DMCA, Links