Metallica

Cliff Burton Memorial Show - Cliff 'em All Bass Tabs



More from Metallica

Metallica Tabs
Metallica Chords
Metallica Bass
Metallica Lyrics




|----------14---------------------12------------9---|---------10------10---------------|
|------14------14-----------------------12*--------9|-----10------10------10-----10----|
|--12--------------12s14--12--10-------------7------|--8----------------------8--------|
|---------------------------------------------------|----------------------------------|

G|-----------------------------12------------------|----------10----10--------------|
D|-------12--------------12------------------------|----10--------------10----------|
A|--10-------10----10------------10---10s12--------|---------8----8----------8s12---|
E|-------------------------------------------------|--------------------------------|

G|-----------9------------12--9-------------------|
D|--10h12---------10h12------------10h12--12------|
A|------------------------------------------------|
E|------------------------------------------------|



Related Metallica Bass Tabs

Little Wing bass
Better Than You bass
Enter Sandman Main Riff bass
Holier Than Thou bass
Another Way To Intro In Enter Sandman bass
The Black Album bass
Four Horsemen bass
Anethesia)pulling Teeth bass
Wherever I May Roam-live bass
One (guitar Intro) bass
Trapped Under Ice bass
Carpe Diem Baby bass
The House Jack Built bass
King Nothing bass
Sweet Amber bass
Pulling Teeth (bass Solo) bass
God Of Thunder bass
So What bass
2x4 bass
Cop Killer bass


Guitar Tabs




All tabs are property and copyright of their owners. All tabs provided for educational purposes only. Privacy Policy, DMCA, Links