Metallica

Bad Seed Bass Tabs



More from Metallica

Metallica Tabs
Metallica Chords
Metallica Bass
Metallica Lyrics




Bad Seed

|| ||-4h6-4-----------4h6-4------------||
D|| R ||o------6-4-2-----------6-4-2---2-o||
A|| ||o------------4-4-------------4---o||
E|| ||----------------------------------||




Figure 2 Repeat 3X
||----------------||-----------------------||
||----------------||o---------------------o||
||----------------||o---------------------o||
||00-0-0-0-0-00 R0||-0-0-0-0-0-0-2h3-2-4-2-||


Figure 3 Repeat 8X
||-----------------|| ||------------|| ||---- ----||
||-----------------|| ||o----------o|| ||----Figure 1----||
||-----------------|| ||o----------o|| ||---- ----||
||00-0-0-0-33333333|| ||-0-0-0-2h30-|| ||---- ----||


Figure 4
||----------------------------------------|| ||---- ----||
||----------------------------------------|| ||----Figure 2----||
||----------------------------------------|| ||---- ----||
||0-0-0-0-0---1-1-1-1-1---2-2-2-2-22221111|| ||---- ----||



||-----------------|| ||---- ----|| ||---- ----||
||-----------------|| ||----Figure 3----|| ||----Figure 1----||
||-----------------|| ||---- ----|| ||---- ----||
||00-0-0-0-33333333|| ||---- ----|| ||---- ----||




||---- ----|| ||---- ----|| ||-----------------------||
||----Figure 4----|| ||----Figure 2----|| ||-----------------------||
||---- ----|| ||---- ----|| ||-----------------------||
||---- ----|| ||---- ----|| ||0-0-0-0-0-0-0-0-0-0-0-0||

solo end of solo
||---- ----|| ||---- ----|| ||---- ----||
||----Figure 2----|| ||----Figure 1----|| ||----Figure 4----||
||---- ----|| ||---- ----|| ||---- ----||
||---- ----|| ||---- ----|| ||---- ----||



||---- ----|| ||------------||
||----Figure 2----|| ||------------||
||---- ----|| ||------------||
||---- ----|| ||000000000000||



||---------------------------------------------||
||---------------------------------------------||
||---------------------------------------------||
||-00-0-0-0-0-0-2h3-2-4-2-0-0-0-0-0-0-2h3-2-4-0||



Related Metallica Bass Tabs

Bass/guitar Doodle In Paris bass
Fuel bass
Low Mans Lyric bass
The Memory Remains bass
Seek And Destroy bass
Some Kind Of Monster Intro bass
Damage Inc (perfect) bass
Orion(instrumental) bass
Turn The Page bass
The House Jack Built bass
Orion Bass Interude/solo bass
And Justice For All -album bass
Ride The Lightning bass
So F***ing What bass
Better Than You bass
Bass Solo bass
Purify bass
King Of Nothing bass
Bass And Guitar Solo Tribute bass
Die Die Die My Darling (misfit Cover) bass


Guitar Tabs




All tabs are property and copyright of their owners. All tabs provided for educational purposes only. Privacy Policy, DMCA, Links