Metallica

And Justice For All Bass Tabs



More from Metallica

Metallica Tabs
Metallica Chords
Metallica Bass
Metallica Lyrics




AND JUSTICE FOR ALL

Bass Riff1
|-----------------------------|
|-----------------------------|
|--2-2-2-2-2-2-1-1-1-1-1-0-1--|
|-----------------------------|

Bass Riff2
|------------------------------------------------4-------------3----|
|-----------------------7--------------------4---------------3------|
|--7-7-7--7-5h7-5-5-5-5---5-3-3-3--3-3h5-2-2---2---2-1-1-3-1-----1--|
|-------------------------------------------------------------------|

Bass Riff3
|----------------------------------------------------------------|
|-----------------------------------------------------------3-2--|
|---------------------------------------------------------0------|
|---6----6-5----6-5-4----6-5-4-3----6-5-3-1-5-3-1-0-3-1-0--------|

Bass Riff3 (cont.)
|---------------------------------|
|---------------------------------|
|--3--2--0-----2-0-----0----------|
|-----------3------3-2---3-2-1-0--|

Bass Riff4
|---------------------------------------------------------------|
|---------------------------------------------------------------|
|-----------------------5h7--7-5------------------5h7--7-5------|
|--6--6--5---6--6--5--0------------7---6--6--5--0------------7--|

Bass Riff5
|-------------------------------------------------------------------------|
|-------------------------------------------------------------------------|
|-------------------------7------7-----------------------0----------0-----|
|--6--6--5---6--6--5---0------0------0--0---2--3--0---0------3--5------0--|

Bass Riff5 (cont.)
|----------------------------------------------------------------------|
|----------------------------------------------------------------------|
|------0-0-----0-0-----7------7-----------------------0----------0-----|
|--0-3-----0-3------0------0------0--0---2--3--0---0------3--5------0--|

Bass Riff5 (cont.)
|---------------------|
|---------------------|
|--------0---8--8--7--|
|--0--3---------------|

Bass Riff6
|----------------------------------------------------------------|
|----------------------------------------------------------------|
|----5h7--7-5------------------5h7--7-5--------------------------|
|--0------------7---6--6--5--0------------7---6--6--5---6--6--5--|

Bass Riff6 (cont.)
|----------------------------------------------------------------|
|----------------------------------------------------------------|
|----5h7--7-5------------------5h7--7-5--------------------------|
|--0------------7---6--6--5--0------------7---6--6--5---3--3--2--|

Bass Riff7
|-----------------------------------------------------------|
|-----------------------------------------------------------|
|----7----7--7---------------7----7--7----------------------|
|--0----0----0---0--0--1---0----0----0---6--6--5---6--6--5--|

Bass Riff8
|--------------------------|
|--------------------------|
|-----7--7--------5--5-----|
|--0--------0--0--------3--|

Bass Riff9
|-----------------------------------|
|-----------------------------------|
|-----------------------------------|
|--2---2-2-2-2-2-2-3-2-0-2h3---2h3--|

Bass Riff10
|-------------------|
|-------------------|
|-------------------|
|--2---2-2-2-2-2-2--|

Bass Riff11
|------------------------------|
|--5---------------------------|
|----------3--3-----------5h7--|
|---------------------5h7------|

Bass Riff12
|----------------------------------------------------------------|
|----------------------------------------------------------------|
|--7-------------------------------------------------------------|
|--0---0-0-0-0-0-0--1-0-0-0h1---0h1---5---5-5-3-5-7---7-7-5-7-8--|

Bass Riff12 (cont.)
|---------------------------------------------------------------------|
|---------------------------------------------------------------------|
|----------------------------------------------------------------7-8--|
|--7-5-3-1--0---0-0-0-0-0-0--1-0-0-0h1---0h1---5--5-5-3-5-7--10-------|

Bass Riff12 (cont.)
|----------------------------------------------------------------|
|----------------------------------------------------------------|
|--7-------------------------------------------------------------|
|--0---0-0-0-0-0-0--1-0-0-0h1---0h1---5---5-5-3-5-7---7-7-8-7-5--|

Bass Riff12 (cont.)
|-------------------------------------------------------|
|-------------------------------------------------------|
|----------5--3--3-3-2----------------------------------|
|--3-3-5-3-------------3-2-1----1----6--6--5---6--6--5--|

Bass Riff13
|----------------------------------------------------------------|
|----------------------------------------------------------------|
|----5h7--7-5------------------5h7--7-5--------------------------|
|--0------------7---6--6--5--0------------7---6--6--5---6--6--5--|

Bass Riff13 (cont.)
|--------------------------------------------|
|--------------------------------------------|
|----5h7--7-5------------------5h7--7-5------|
|--0------------7---6--6--5--0------------7--|

Bass Riff14
|------------------------------------|
|------------------------------------|
|------------------------------------|
|--0---0-0-0-0-0-0--1-0-0-0h1---0h1--|

Bass Riff15
|---------------------|
|---------------------|
|--3--3--2---3--3--2--|
|---------------------|

Bass Riff16
|----------------------|
|----------------------|
|----------------------|
|--0-2--0-2--2--0-2-3--|

Bass Riff17
|-----------------------------------------------------|
|-----------------------------------------------------|
|-----5--5--------3--3--------4--4--------2--2--------|
|--0--------3--0--------1--0--------2--0--------0--0--|

Bass Riff18
|-------------------------------------------------------------|
|----------------------------------------------------------4--|
|------------------------------------------------4------------|
|--5--5--3---5--5--3---3--3--2---3--3--2---2--2------2--2-----|

Bass Riff18 (cont.)
|--------------------|
|--------3-----------|
|--------------3-----|
|--1--1-----1-----1--|

Bass Riff19
|----------------------------------------------------4-------------3----|
|--------------9-----------7---------------5-----4---------------3------|
|--7-----9-7-7---5-----7-5---5-3-----5-3-3---2-2---2---2-1-1-3-1-----1--|
|----0-0-----------0-0-----------0-0------------------------------------|

Bass Riff19 (cont.)
|------------3-----------------------------------------------------------|
|------3---3-------------------------------------------------------------|
|--1-1---1-----1---7------7---5------5---3------3---2------2---1------1--|
|------------------0--x-x-0------x-x--------x-x--------x-x--------x-x----|

Bass Riff19 (cont.)
|--------------------------|
|--------------------------|
|--1------1---1------1-----|
|-----x-x--------x-x----0--|

Bass Riff20
|---------------------|
|---------------------|
|---------------------|
|--6--6--5---3--3--2--|

Bass Riff21
|-----------------------------------------------------|
|-----------------------------------------------------|
|-----7------7-----------------------0----------0-----|
|--0------0------0--0---2--3--0---0------3--5------0--|

Bass Riff21 (cont.)
|----------------------------------------------------------------------|
|----------------------------------------------------------------------|
|------0-0-----0-0-----7------7-----------------------0----------0-----|
|--0-3-----0-3------0------0------0--0---2--3--0---0------3--5------0--|

Bass Riff21 (cont.)
|---------------------|
|---------------------|
|--------0---8--8--7--|
|--0--3---------------|

Bass Riff22
|--------------------------------------------------------------------------|
|--------------------------------------------------------------------------|
|-----7------7--7----------------------------------------------------5--3--|
|--0------0-----0---0--2--3--0---5---5-5-3-5-7---7-7-8-7-5-3---3-5-3-------|

Bass Riff22 (cont.)
|--------------------------------------------|
|--------------------------------------------|
|--3--3--2-----------------------------------|
|------------3--2--1------6--6--5---6--6--5--|

Bass Riff23
|----------------9------------------------------|
|--9-------9----------------------------12------|
|--7----------7-----7--12-------12--------------|
|----------------------10-----------10------10--|

Bass Riff24
|---------------------------------------|
|----------------9-----7----------------|
|--9-------9-----------0----------------|
|--7----------7-----7----------3--3--2--|

Bass Riff25
|------------------------------------------------------|
|-------------------7----------------------------------|
|--9----------------0----------------------------------|
|--7-------6--6--5----------3--3--2-----------3--3--0--|

3.EYE OF THE BEHOLDER

INTRO
-----------------------------!
-----------------------------!
-----------------------------! 14X's
0--0--0-0-0--0-0-0-0-0-0-0-0-!

------------------------------------------------------------------!
------------------------------------------------------------------!
------------------------------------------------------------------! 3X's
3---3---3-3-3---2-2-2-2--2-2-2-2---2---2---2-2-2--0-0-0-0-0-0-0-0-!

-----------------------------!--------------!
-----------------------------!--------------!
-----------------------------!--------------!
3---3---333---2-2-2-2-2-2-2-2!2---2---2-2-2-!

!--------------------------!
!--------------------------!
!-------7----------7-----7-! 7X's
!0-0-0-----0--0--0---0-0---!

-------------------------------------!
--------------------8H9P8H9----------!
----------7------------------7H8P7H8-! 2X's
0-0-0-----------0--------------------!

!-------------------!-----------------------!
!-------------------!-----------------------!
!-------------------!-----------------------!
!--6H7P6H7--2H3P2H3-!----0---------0--------!

1,3 VERSES
-----------------------------!----------------------------!
-----------------------------!----------------------------!
-----------------------------!----------------------------! 4X's
0-0-0-0-0-0-0--0-3--3--3-3-3-!2-2-2-2---2-2-2-2--2--2-2-2-!

-------------------------!--------------------------!
-------------------------!--------------------------!
-------------------------!--------------------------!
0-0-0-0-0-0-0-0-0-0-0-0-0!0-0-0-0-0-0-0-0-0-0-0-0-0-!

2,4,5 VERSES
----------------------------!-----------------------------!
----------------------------!-----------------------------!
----------------------------!-----------------------------! 3X's
0-0-0-0-0-0-0-0-3--3--3-3-3-!2-2-2-2--2-2-2-2-2--2--2-2-2-!

------------------------------!----------------!
------------------------------!----------------!
------------------------------!----------------!
0-0-0-0-0-0-0-0-3---3---3-3-3-!-2--------------!

PRE-CHORUS
---------------------------!
---------------------------!
---7---7---8---5---5-----6-! 5X's
-0---0---0---0---0---------!


-----------------------!-------------------!-------------------!
-----------------------!-------------------!-------------------!
7------------7---------!-------------------!-------------------!
0---0--0--0--0---------!-2/3----0-0-0-0----!-2/3----3-3-3-3----!

--------------!----------------------------!-----------------!
--------------!----------------------------!-----------------!
--------------!----------------------------!-----------------!
-6-6-6--3-3-3-!-5-5-5--3-3-3--2-2-2--3-3-3-!-2----3--2----3--!
CHORUS
------------------! !--------------------!
------------------! !--------------------!
------------------!2X's !------4-------5-----!
-2-----3--2----3--! !-2-------2-3-----3--!

------------------! !--------------------!
------------------! !--------------------!
------------------!2X's !-----4---------5----!
-2-----3--2----3--! !-2-------2-3-----3--!

------------------! !--------------------!
------------------! !--------------------!
------------------!2X's !-----4--------7-----!
2------3--2----3--! !-2-------2-5-----0--!

--------------------!-------------------------!
--------------------!-------------------------!
-7------5--7--------!--------7-------7-----7--! 3X's
-----------0-----0--!--0-0-0---0-0-0---0-0----!

-----------------------------!-------------------!
------------8H9P8H9----------!-------------------!
-------7------------7H8P7H8--!-------------------!
-0-0-0---0-------------------!-6H7P6H7--2H3P2H3--!

-----------------!--------------------!
-------------5---!--------------------!
-----7-----------!-------7-----2-2----! 2X's
-0-0---0-0-3---0-!-(0)-0---0-0-----3--!

------------------!------------------------!-------------------!
-------------5----!------------------------!-------------3-----!
-----7------------!--------7----2--5-----5-!-----7-------------!
-0-0---0-0-3---0--!-(0)-0-----0-------3----!-0-0---0-0-1----0--!

-----------------------!-----------------!-----------------------!
-----------------------!-----4---5-------!-----------------------!
-------7---2--5-----5--!-2-2---2---3-0-2-!-(2)-2-2-0-2-5---5---5-!
-(0)-0---0-------3-----!-----------------!---------------3---3---!

-----------------------!-------------------!
-------4-----5---------!-------------------!
---2-2----2----3--0-2--!-(2)-2-2-0-2-5---5-!
-----------------------!---------------3---!
............3X's........................
------------------!--------------------!-------------------!
------7---8-------!--------------------!-----7---8---------!
--5-5---5---6-3-5-!-(5)-5-5-0-0-3----3-!-5-5---5----6-3-5--!
------------------!----------------1---!-------------------!

-----------------!-------------------!
-----------------!-----7---8---------!
---------0-3---3-!-5-5---5----6-3----! 2X's
-5-5-5-5-----1---!----------------5--!

------------------------!
------------------------!
-----5-5-0-0-3---3---3--!
-(5)-----------1---1----!

----------------------------!
----------------------------!
----------------------------! 2X's
-7-7-7--5-5-5--4-4-4--5-5-5-!

-----------------------------!-------------------------!
-----------------------------!--7--7--5--5--4--4-------!
-5-5-5--3-3-3--2-2-2--3-3-3--!--5--5--3--3--2--2-------!
-----------------------------!--------------------3-3--!

---------------! !---------7P6P4H6P4H6P4------!
---------------! !-------------------------7--!
---------------!7X's !----------------------------!
-2----3-2---3--! !-2-2-2-2--------------------!


CODA:!--------------------! !-------------------!
!--------------------! !-------------------!
!------4-------7-----! !--7----5--7--------!
!--2------2--5----0--! !----------0-----0--!

--------------------------------------!-------------------!
--------------------------------------!-------------------!
---7-----7-----8-----5-----5-------6--!-7--------------7--!
-0----0-----0-----0-----0-------------!-0--------0-0-0-0--!

-----------------------------------! !--------------!
-----------------------------------! !--------------!
---7-----7-----8-----5-----5----6--!2X's !-7---------7--!
0-----0-----0-----0-----0----------! !-0---0-0-0-0--!

--------------------!---------------------------------!-----------!
--------------------!---------------------------------!-----------!
--7-----------------!---------------------------------!-7---------!
--0-----------------!-2/3------0-0-0-0-0-0-0-0-0-0-0--!-0---------!



Related Metallica Bass Tabs

Live Shit bass
The Black Album bass
Call Of Ktulu bass
My World Bass Solo bass
The Outlaw Torn bass
Cliff Em All Bellz bass
Orion Bass Interude/solo bass
53rd And 3rd Ramones Cover bass
Leper Messiah bass
Metal Militia bass
Anesthesia (pulling Teeth) bass
The Prince bass
Fixxxer bass
-human bass
For Whom The Bell Tolls -except Correct bass
The Wait bass
Unforgiven 2 bass
Seek And Destroy bass
Blues Jam bass
Jason Newstaed And Kirk Hammett Solo bass


Guitar Tabs




All tabs are property and copyright of their owners. All tabs provided for educational purposes only. Privacy Policy, DMCA, Links