Metallica

Album: Reload Tabs



More from Metallica

Metallica Tabs
Metallica Chords
Metallica Bass
Metallica Lyrics



.-/ ~=-._
.-~/ ____ ______ __ _ _ _ ____| ~-._
~~/ -~|| __||_ __// || | | | | | / __/| .~~
/ . . || __| | | / ' || |__| |__ | || (__ |
/ / ~| ||____| |_| /_/|_||____|____||_| ___| |
/ / |-~ ~-|
/ /__ "Reload" TAB Book __
/ .-~ Compiled by -.
/.-~ Daniel Allen ~.
/~ ~

---------------------------------------------------------------
------------------------------------------------------------------------
---------------------------------------------------------------

---------------------------- Metallica ----------------------------
------------------------- Fuel --------------------------
tune all guitars down 1/2 step
1)
Db-----------------------------------------------
Ab--2---2-2---2-2---2---2-2---2-2---5/7-7-7-75-5
Eb--3p0-0-3p0-0-3p0-3p0-0-3p0-0-3p0-3/5-5-5-53-3
pm...........................................
intro
"Gimme Fuel, Gimme Fire, Gimme that which I desire"
2)
Db--------7-7-7-5--------7-7-7-5
Ab--0h5h7----------0h5h7--------
Eb------------------------------
lead fill
3)
Db--2----- riff -2--4--3--2-- riff
Ab--2--5-- 2) -2--2--1--0-- 2)
Eb--0--3-- -0----------- twice
Let ring...........................
verse
4a)
Db--5h7-----7p5-----5h7-----7p5-----5h7-----7p5-----5h7-----7p5----
Ab--5h7-----7p5-----5h7-----7p5-----5h7-----7p5-----5h7-----7p5----
Eb------0-0-----0-0-----0-0-----0-0-----5-5-----5-5-----5-5-----5-5
pm.. ... ... ... ... ... ... ...
4b)
Db--5h7-----7p5-----5h7-----7p5-----5h7-----7p5-----5h7-----7p5----
Ab--5h7-----7p5-----5h7-----7p5-----5h7-----7p5-----5h7-----7p5----
Eb------3-3-----3-3-----3-3-----3-3-----5-5-----5-5-----5-5-----5-5
pm.. ... ... ... ... ... ... ...
4c)
Db--5h7-----7p5-----5h7-----7p5-----5h7-----7p5-----5h7-----7p5----
Ab--5h7-----7p5-----5h7-----7p5-----5h7-----7p5-----5h7-----7p5----
Eb------0-0-----0-0-----0-0-----0-0-----5-5-----5-5-----5-5-----5-5
pm.. ... ... ... ... ... ... ...
4d)
Db--5h7-----7p5-----5h7-----7p5-----7h9-----9p7-----7h9-----9p7----
Ab--5h7-5-5-7p5-5-5-5h7-5-5-7p5-5-5-7h9-7-7-9p7-7-7-7h9-7-7-9p7----
Eb-----------------------------------------------------------------
pm.. ... ... ... ... ... ... ...
Chorus riffs (all four)
This is tough to learn, especially since it's so fast, but this is how
Kirk plays it.
5)
Db--7-7--5----------7-7--5------
Ab--7-7--5----------7-7--5-----5
Eb---------0-0-0-0---------0-0-3
pm...... ... ring
pre-solo and solo
6)
eb------------------------------------------
Bb------------------------------------------
Gb--9--11/129--11/12/149--11/12/1412119
Db------------------------------------------
Ab------------------------------------------
Eb------------------------------------------
post solo (played over riff 4)
Solo: (from chicago 2/9/97)
eb-----12-----12----12---------17-15-14-15-14--------------------
Bb--15'--15'-----15'---15'--------------------15-17--------------
Gb-------------------------------------------------14-12-14------
Db----------------------------------------------------------12---
Ab---------------------------------------------------------------
Eb---------------------------------------------------------------

eb------------------15-17'`15p12-15p12---------12-12-----12-------12-12--
Bb-------------15-17------------------15p12-15------15p12--15p12--15'15'-
Gb----12--14s16----------------------------------------------------------
Db--14--14---------------------------------------------------------------
Ab-----------------------------------------------------------------------
Eb-----------------------------------------------------------------------

eb--------------------------------------------
Bb--s5-3---s5-3----0--0--0--0-----------------
Gb--=----4------4-2'-2'-2'-2'-2'`-------------
Db-----------------=-------------2-2----------
Ab--------------------------------------------
Eb--------------------------------------------

eb-------0------0-------------------------------------
Bb--s5-3---s5-3---------------------------12--14--15--
Gb-----------------14-14-14-14-14p12------14'-16'-17'-
Db-----------------14-14-14-14------14p12-------------
Ab----------------------------------------------------
Eb----------------------------------------------------

eb-----12---12--------12--------12------15p12--12------15p12--12------
Bb--15'--15'--15p12-15'-15p12-15'-15p12------15'-15'p12-----15'-15'p12
Gb--------------------------------------------------------------------
Db--------------------------------------------------------------------
Ab--------------------------------------------------------------------
Eb--------------------------------------------------------------------

eb--------------------------------------------------------------
Bb--------------------------------------------------------------
Gb--------11-12------11-12-s14---11-12-s14-12p11-12--p11--11----
Db--s14---------14------------14------------------------14------
Ab--------------------------------------------------------------
Eb--------------------------------------------------------------

eb--------------------------------------------------------------
Bb--------------------------------------------------------------
Gb--------11-12-----------11-12-s14-----11-12-s14-s16-16--------
Db--12s14-------14--14-14----------14---------------------------
Ab--------------------------------------------------------------
Eb--------------------------------------------------------------

---------------------------- Metallica ----------------------------
---------------------- The Memory Remains -----------------------
tune all guitars down 1/2 step
Db--7/9--9--7/9--9--7/9--9-----------7/9--9--7/9--9--7/9-9---
Ab--5/7--7--5/7--7--5/7--7--7/5-7/5--5/7--7--5/7--7--5/7-7--4
Eb-----00-00---00-00---00---5/3-5/3-----00-00---00-00-------2
pm.. ... ... ... ...
chorus "Fortune fame, mirror vain, gone insane, but the memory remains"


Main riff pt1 Main riff pt2 Main riff pt3
Db----------------5-7h8p7-5-- -----------5-7h8p7-5-8~~ ---------------------
Ab------7~~5-7-7------------7 --7~~5-7-7-------------- --7~~5-7-7-----------
Eb--0-0---------------------- 0----------------------- 0-----------5-7-8-7-0
pm........
Main riff end
Db--------------5-7h8p7-5----5---4--
Ab----7~~5-7-7-----------------2----
Eb--0----------------------3-------0
The main riff is layed out in 3 patterns, but is the same basic riff:
end of chorus (no lyrics): part1, part 1, end (muted scratch)
first part of verse: part1, part 2, end
second part of verse: part2, part 3, end
eb------------------
Bb------6--------8--
Gb----5---5----7---7
Db--3--------5------
Ab------------------
Eb------------------
"Dance little tin goddess."

Db--2---4-------2-4-2---2---4---5---2-4-2
Ab--2---4---5---0-2-2---2---4---5---0-2-2
Eb--0---2---5-------0---0---2---3-------0
during Marianne Faithful's "Ey ya ya yah" part.
Gb-------------------------------
Db--------------------7-7-9p7----
Ab--7-9-10-9--10-9-5----------9-7
Eb-------------------------------
Guitar arrangement for the "Ey ya ya yah" part, this is the equivalent of what
she sings.
Db--5-5-5-5-5-5-5-5-5-5-5-5
Ab--5-5-5-5-5-5-5-5-5-5-5-5
Eb--3-3-3-3-3-3-3-3-3-3-3-3
pm......................
The song seems to end, then "Ash to Ash..."
^
eb--3-3-3-3-0-0-3-5-5
Bb------------------5
Gb-------------------
Db-------------------
Ab-------------------
Eb-------------------
end solo (I'll figure the rest out later)
The song ends with Marianne Faithful saying "Say yes. At least say hello."

---------------------------- Metallica ----------------------------
-----------------------Devil's Dance ------------------------
Tune all guitars down one step.
Bass intro
1)
d----------------------------------------------
A----------------------------------------------
F----------------------------------------------
C--2-2-2------2-2-2-2---2-2-2------2-2-2-2-----
G--2-2-2-echo-2-2-2-2---2-2-2-echo-2-2-2-2-echo
D--0-0-0-echo-0-0-0-0---0-0-0-echo-0-0-0-0-echo
palm muted......... .......................
2a) James
C--2-2-2-2-2--2-2--2-2--2-2-2-2
G--2-2-2-2-2--2-2--2-2--2-2-2-2
D--0-0-0-0-0--0-0--0-0--0-0-0-0
pm...........................
2b) Kirk
F----------------2-3~2---2
C--2-2-2-2-5-2-5-------5--
G-------------------------
D-------------------------
lead intro
3)
C--2-detune
G--2-detune
D--0-detune
The detune is caused by bending the neck forward.



4a) James
C--------------------------------------------------------------
G--7------7------7------7------7----7----7----7----7-----------
D----6~~~~--5~~~~--6~~~~--5~~~~--6~~--5~~--6~~--5~~--6~~6-5-3-5
4b)
C--------------------------------3----2----3----2----3--3-2---3
G--------------------------------1----0----1----0----1--1-0---0
D-----------------------------------------------------------3--
intro/before verses
5)
C--------------------- four --------
G--2-2-2-2-2-5--2-2-2- times --------
D--0-0-0-0-0-3--0-0-0- then -5h6p5-3
pm......... .....
verse
"Yeah, I feel you too."
6)
C-------------------- two --------
G--5-5-5-5-5-5--5-5-5 times --------
D--3-3-3-3-3-3--3-3-3 then -5h6p5-3
pm.................
verse
"In your eyes."
7)
d------------------
A----5-------5-----
F------4~~~----4~~~
C--5-------5-------
G------------------
D------------------
lead fill (2nd and 3rd verses)
8)
C-----------------------------------------
G--5-5-5-5-5--5-5--5-5-5-5--4-4-4-4-4--4-4
D--3-3-3-3-3--3-3--3-3-3-3--2-2-2-2-2--2-2
pm.....................................
"Deep inside you know these seeds I plant will grow"
9)
C--3--3-3-3--3-3-3--3-3-2----------------3
G--1--1-1-1--1-1-1--1-1-0--2-2--5-5--2---1
D--------------------------0-0--3-3--0-3--
pm......................................
chorus
"Some day you will see."
------------------------------ Metallica ------------------------------
------------------------ The Unforgiven 2 -------------------------
tune all guitars down 1/2 step
Same horn intro from "The Unforgiven" (1)
1a) Kirk (left side)
Gb-----2/4-4/5-7~~-9-7-5/75--2/4-4/5-7~~-7-4/54
Db--2--------------------------------------------
Ab--0--0/2-2/3-5~~-7-5-3/53--0/2-2/3-5~~-5-2/32
Eb-----------------------------------------------
1b) James
Db--2---5------5-----7
Ab--0---3------5-----5
Eb-------------3------
intro (distorted)
2)
eb---------0------------------0---3-------------------
Bb----------1-----------------3/5---53---3^-0--1/31-
Gb------2-----------------0---------------------2/42-
Db----2-----------------2-----------------------------
Ab--0------------0-2-3--------------------------------
Eb----------------------------------------3--0--------
verse clean
"Lay beside me, tell me what they've done"
This is played on a Fender Telecaster with a B-bender (same as Ronnie).
It will be difficult to play exactally right without one. (I don't have one either)
Instead of the 3h5 he's actually able to bend the B string (hence the name) up a full
step. I'd like to play one some day just to see how it works. (It has to do with
the strap button and is connected to a pulley at the bridge)





3)
eb----------------------------------------0
Bb-------3--------------------------------1
Gb-----2--2------0----------0-------0-----2
Db---0-------------3------0-----------3---2
Ab--------------3-------2---------3-------0
Eb------------1-------3---------1----------
bridge
"But there's no sun shining through."
4a)
Gb--4-5-5-5--5-4-4--4-7-7--7-7-5-5-4
Db--5-7-7-7--7-5-5--5-9-9--9-9-7-7-5
Ab----------------------------------
Eb----------------------------------
4b)
Gb--4-5-5-5--5-4-4--4-7-7--7-5-4-5-4--
Db--5-7-7-7--7-5-5--5-9-9------------7
Ab------------------------------------
Eb------------------------------------
"What I've felt, what I've known"
5a) left
eb------------------------------------
Bb------------------------------------
Gb------2--------5-----------------7--
Db----2---2----5---5------5------7---7
Ab--0--------3----------5---5--5------
Eb--------------------3---------------
5b) right
eb------------------------------------
Bb------------------------------------
Gb--4-2-4-2--7-5-7-5-----------9-7-9-7
Db--------------------7-5-7-5---------
Ab------------------------------------
Eb------------------------------------
"Come lay beside me" (second verse)
played with echo and chorus.
At the end of the song they play the chorus riff from "The Unforgiven" (1)
The only difference is now it's flat instead of regular tuning.

---------------------------- Metallica ----------------------------
---------------------------- Better Than You ----------------------------
Tune all guitars down 1/2 step
Drum intro
Db------------------------
Ab--2-5/7-5--2--2-5/7-5--2
Eb--0-3/5-3--0--0-3/5-3--0

Db--------------------------------------------------------
Ab--2-5/7-5------2-----2-----2--2-5/7-5------2-----2-----2
Eb--0-3/5-3--0-0-0-0-0-0-0-0-0--0-3/5-3--0-0-0-0-0-0-0-0-0
pm.. ... ... ... ... ...
Gb--------------------------------------------
Db--------------------------------------------
Ab--2-5/7-5-5-5-7-7-7-5-5-5------2-----2-----2 2 times
Eb--0-3/5-3-3-3-5-5-5-3-3-3--0-0-0-0-0-0-0-0-0
(timing is messed up) pm.. ... ...
"I look at you look at me"
Gb-------------------------------------------------------
Db--------------------5-5-5-7-7-7-------------10-10-10-12
Ab--2-5/7-5-5-5-7-7-7-3-3-3-5-5-5-5-5-5-7-7-7-8--8--8--10
Eb--0-3/5-3-3-3-5-5-5-------------3-3-3-5-5-5------------
"Holding the lion's share, holding the key"
Gb---------------4p2------------- --------------6p4-------------
Db--4-4-4-4-4-4------4--4p2---2-3 tw -4/6-4/6-4/6------4--6p4---4-5
Ab--4-4-4-4-4-4-------------2-2-3 ic -4/6-4/6-4/6-------------4-4-5
Eb--0h2-0h2-0h2---------------0-1 e -2/4-2/4-2/4---------------2-3
Chorus
"Oh, cannot stop this train from rolling"

---------------------------- Metallica ----------------------------
------------------------- Slither --------------------------
tune all guitars down 1/2 step
1)
Db--5-4-2---------7-6-5--5-4-2--2--2
Ab--3-2-0--7-6-5--5-4-3--3-2-0--0--0
Eb---------5-4-3--------------------
intro
"Don't go looking for snakes you might find them."
2a) left
Gb-----------6-----------6-----------6-----------6
Db---------5-7---------5-7---------5-7---------5-7
Ab--2---/7------2---/7------2---/7------2---/7----
Eb--0-0---------0-0---------0-0---------0-0-------
2b) right
Gb-----------------------------------------------6
Db--2-----------------------2-----8-7-5-2------5-7
Ab--2-----------------------2-----8-7-5-2---/7----
Eb--0-----------------------0-----6-5-3-0-0-------
3)
Gb------------------ ----------------
Db-----------8---7-- twice --------8-7--5-2
Ab--2--5------------ then --------8-7--5-2
Eb--0--3-0-6---5---0 -0--3-5-6-5--3-0
verse
"Ooh like a puppet dances"
4a) left
Gb----------------------------------------
Db--2-3--2-3--2-3--2-3--2-3--2-3--2-3--2-3
Ab--2-3--2-3--2-3--2-3--2-3--2-3--2-3--2-3
Eb--0-1--0-1--0-1--0-1--0-1--0-1--0-1--0-1
4b) right
eb---------------------------------------
Bb----------------------5----6----8----10
Gb---------------------------------------
Db--2-3--2-3--2-3--2-3-------------------
Ab--2-3--2-3--2-3--2-3-------------------
Eb--0-1--0-1--0-1--0-1-------------------
"See you crawling."
then back to 1)
5) ^
Gb------------------
Db---------5-7p5----
Ab------/7-------5-7
Eb--0-0-------------
pre second solo
6)
Db--2-2-2-2-2-2-2-2
Ab--0-0-0-0-0-0-0-0
Eb-----------------
second solo backing (just a lot of A then back to 3 and 4)

---------------------------- Metallica ----------------------------
----------------------- Carpe Diem Baby -----------------------
Tune all guitars down 1/2 step
1)
Db--5-5-----5-5-----5-5-----5-5
Ab--7-7-----7-7-----7-7-----7-7
Eb------0-0-----0-0-----0-0----
pm.. ... ...
intro fade in
2)
Gb------7------------------7----------
Db------5------------------5----------
Ab----------5------------------5------
Eb--0-0---7---7-5-3--5p3-0---7---7-5-3
3)
Db--7/9-----97/109-----7--5-5-4
Ab--5/7-----75/8-7-----5--3-3-2
Eb------0-0----------0-0---------
pm.. ...
verse
"Hit dirt, shoot trees."
4)
Db--4--3--------2-2-2-2--4--3--------2-2-2-2--7--5-5-4
Ab--2--1--5--4--2-2-2-2--2--1--5--4--2-2-2-2--5--3-3-2
Eb--------3--2--0-0-0-0--------3--2--0-0-0-0----------
pm...... .......
bridge
"They make me miss you"
5)
Db-------------- ------------- -----------------5
Ab--2--4--5--7-2 1) -2--4--5--7-2 1) -2--4--5--7--7-7-3
Eb--0--2--3--5-0 -0--2--3--5-0 -0--2--3--5--5-5--

chorus
"So wash your face away with dirt."
6) ^ ^
Gb------7-----9-----7-----9
Db------5-----7-----5-----7
Ab-------------------------
Eb--0-0---0-0---0-0---0-0--
pm
pre solo
7a)
Db--------9----------9---------------------
Ab--------7----------7-----------9-7--9-7-5
EB--0-0-0---0-0--0-0---0-0--0-0--7-5--7-5-3
pm.... ........ ........
7b)
Db----------5----------5----------5-4--5-4-2
Ab--2-2-2-2-3-2-2--2-2-3-2-2--2-2-3-2--3-2-0
Eb------------------------------------------
pm.......................................
7c)
Db------9-----11----12-----14
Ab------7-----9-----10-----12
Eb--0-0---0-0---0-0----0-0---
solo backing
--------------------------------- Metallica ---------------------------------
---------------------------- Bad Seed ----------------------------
tune all guitars dropped D down 1/2 step (dropped Db)
coughing and drum intro
1)
eb-------------------------------------------------------------------
Bb-------------------------------------------------------------------
Gb-------------------------------------------------------------------
Db-----------------------------------------------------0-0-0-0-------
Ab--5-3-0--------5-3-0--------5-3-0--------5-3-0-------0-0-0-0-------
Db--------5-3-0--------5-3-0--------5-3-0--------5-3-0-0-0-0-0-3~~3~~
intro riff
2)
Db----0-0-0-0-0-------------0-0-0-0-0-------------3-3-3-3-5--6-6
Ab----0-0-0-0-0-------------0-0-0-0-0-------------3-3-3-3-5--6-6
Db--3p0-0-0-0-0-5p0-3h5-3p0-0-0-0-0-0-5p0-3h5-3p0-3-3-3-3-5--6-6
pm........ ......... ..............
3)
Db----0-0-0-------0-0-0-------0-0-0
Ab----0-0-0-------0-0-0-------0-0-0
Db--3p0-0-0-0h2h3-0-0-0-0h2h3-0-0-0
pm.... ..... .....
verse
"Come clean, fess up."
4a) James
Db--5-3----------5-3---------7
Ab------5-3----------5-3-----5
Db----------7-5----------7-5--
4b) Kirk
Db--5-5-5-5-5-5-5-7
Ab--5-5-5-5-5-5-5-7
Db--5-5-5-5-5-5-5-7
bridge
"Ladies and gentilmen"
5a) James
Db--3-3-3-3-0----------------3-3-3-3-0----------------3-3-3-3-5------------
Ab--3-3-3-3-0----------------3-3-3-3-0----------------3-3-3-3-5------------
Db--3-3-3-3-0-0h5p0-3h5-3p0--3-3-3-3-0-0h5p0-3h5-3p0--3-3-3-3-5-5p0-3h5-3p0
5b) Kirk
eb------------5~~~~~~~~~~--------------10~~~~~~~~~~-------------5~~~~~~----
Bb--------------------------------------------------------------4----------
Gb-------------------------------------------------------------------------
Db--3-3-3-3------------------3-3-3-3------------------3-3-3-3--------------
Ab--3-3-3-3------------------3-3-3-3------------------3-3-3-3--------------
Db--3-3-3-3------------------3-3-3-3------------------3-3-3-3--------------
Chorus
"Swing the noose again."
6)
Db--0-0-0-0-3-3-3-3-5-5-5-5-6-6-6-6
Ab--0-0-0-0-3-3-3-3-5-5-5-5-6-6-6-6
Eb--0-0-0-0-3-3-3-3-5-5-5-5-6-6-6-6
"Choking on a bad seed" (about 2:00)

---------------------------- Metallica -------------------------------
------------------- Where the Wild Things Are -------------------
tune all guitars down 1/2 step
1) all but 2nd time
eb------------------------------------- ------- ----------
Bb------------------------------------- ------- ----------
Gb--4-4--4-4--4-----4--4-----3--3-----0 ------- ----------
Db--5-5--5-5----5-2------5-2------5-2-- ------- ----------
Ab------------------------------------- ------- -0-3-2-0--
Eb------------------------------------- -0-3~~0 ---------3
clean
"So wake up sleepy one."
2a) Kirk 2b) James (right before verse)
Gb--4-4-4-4------ --------------
Db--5-5-5-5-----9 --------------
Ab--------------7 -3-3-3-3-----2
Eb----------0-0-- -1-1-1-1-0-0-0
pm.. .............
3)
Gb-------------------41
Db--5-5-5-5-5-5-5-2--52
Ab--5-5-5-5-5-5-5-2-----
Eb--3-3-3-3-3-3-3p0-----
pm..........
verse
"Steal dreams and give to you."
4)
Gb-------------------- -------------------
Db--7-7--6-6---------- twice -7-7--6-6--4-4--5-5
Ab--5-5--4-4--8-8--7-7 then -5-5--4-4--2-2--3-3
Eb------------6-6--5-5 -------------------
chorus
I can't understand the lyrics
---------------------------- Metallica ----------------------------
--------------------- Prince Charming --------------------
tune all guitars down 1/2 step
1)
Gb---------------------------------5------------
Db---------2--------5----------5-5-5-------5----
Ab--2/152-2--0h5h7---7~~0h5h7-------7-5h7---7~~
Eb--2/152-0------------------------------------
intro
2a) James ^V^V^V
Gb------------------------------------------
Db-----------5----------5----------5-7-7-7-5
Ab-----0h5h7------0h5h7------0h5h7----------
Eb--0----------0----------0-----------------
pm . .
2b) Kirk
Eb------------------------------------0------------
Bb------------------------------------0------------
Gb-------------------------------------------------
Db--2---2--7--5--7------2-----------------5-5-5----
Ab--2---2--5--3--5--5-5-0-2----xxx------------7-5
Eb--0---0-----------3-3---0----xxx---------------
chorus riffs pick slide (right before chorus)
3)
Gb------------------------ ------
Db------------------------ ------
Ab--7-----5h7-----7-7-5h7- 4 times -5-6-7
Eb--0-0-0-0-0-0-0-0-0-0-0- -3-4-5
pm.....................
verse "There's a black cloud up ahead, that is me"
4)
Gb--5-------5--5-------5--5-------5---------
Db----7-5-7------7-5-7------7-5-7----5-5----
Ab---------------------------------------7-5
Eb------------------------------------------
fill inbetween verses


5)
Gb-------------------------- ------
Db--4-------4p2----4-4-4p2-- -4-5-6
Ab--4-----------4----------4 4 times then -4-5-6
Eb--2--2-2------------------ -2-3-4
pm..... .....
solo riff (Kirk plays with wah and a talk box)
6)
Gb-------------------------------------------------
Db-------5---5------5---5------7---7---7----7-7----
Ab--7--7---7---7--7---7---7--9---9---9---9------9-7
Eb-------------------------------------------------
post solo fills
7)
Gb-----2-----2---------------------------------
Db--4--2--4--2------5-----4-----2--------------
Ab--4--0--4--0--0-0---0-0---0-0---0-0-5-0-0-3-2
Eb--2-----2------------------------------------
pm . ... ... ... ... ...
"Look up to me"
---------------------------- Metallica ------------------------------
----------------------- Low Man's Lyric -------------------------
tune all guitars down 1/2 step
1)
eb----0--------0--------0-------0-----0-
Bb-----2--------3--------3-------0-----0
Gb------2--------0--------2-------------
Db-------------------0------------------
Ab--0-----------------------------------
Eb----------3-----------------0-----3---
verse
"My eyes see reality, my fingers seek my veins."
The main thing to remember about this song is even though it might
change the notes, the basic chord pattern for this part is the same
A G D E G A
2)
eb-----------------3/53----2h3p2----0----3---
Bb--------2h3p2----3/53----3--------0----3---
Gb------2-----------------2------------------2
Db----2-------------------0------------------2
Ab--0----------------------------------------0
Eb---------------3-----------------0----3-----
"I fall because I let go."
See? A G D E G A
3)
eb--0-0-0-0-0--0-0-0-0--------- -0-0-0-0--3-3-3--0-0-0---------
Bb--1-1-1-1-1--0-0-0-0--------- -1-1-1-1--3-3-3--1-1-1---------
Gb--2-2-2-2-2--0-0-0-0--------- three -2-2-2-2--0-0-0--0-0-0--4-4-4-4
Db--2-----2-2--2-----2--------- times -2-----2--0-0-0--2-2-2--4-4-4-4
Ab--0----------2-----2------0-2 then -0-----0--2-2-2--3-3-3--2-2-2-2
Eb-------------0-----0--0-3---- ----------3-3-3----------------
"The trash fire is warm"
Ok this is A E then A G C B
4)
eb------------------------------------
Bb------------------------------------
Gb-------------4-4-4-4-4-4-4-4-4-4-4-4
Db-------------4-4-4-4-4-4-4-4-4-4-4-4
Ab--0-2-3-2-0--2-2-2-2-2-2-2-2-2-2-2-2
Eb------------------------------------
"Please forgive me"
5)
eb--0---------------3-3/53-2-2-2-2-3-2h3p2--------5-7-5-4-5
Bb--2-2-2-3-2h3p2---3-3/53-3---------------3--5-8----------
Gb--2-------------2-0-------2-------------------------------
Db--2---------------0-------0-------------------------------
Ab--0---------------2---------------------------------------
Eb------------------3---------------------------------------
6) solo-ish thing
eb-----------------------------------
Bb--------1---------0----------------
Gb------2---2-----2---2-----2-0-2-4-2
Db-----------------------------------
Eb--0---------0----------------------
Eb----3---------2--------1-----------
"So low the sky is all I see."

--------------------------------- Metallica ---------------------------------
--------------------------- Attitude --------------------------
tune all guitars down 1/2 step
1)
eb---------------------------------------------
Bb---------------------------------------------
Gb--/9-7----7------------------/9-7----7-------
Db-------10---10-7~~--5-5-5-7-------10---10-7~~
Ab--------------------5-5-5-7------------------
Eb------------------0-3-3-3-5------------------
pm........
intro
2)
eb--------------------------
Bb--------------------------
Gb--------------/9-7----7---
Db--/7-5---5---------10---10
Ab-------7---7--------------
Eb--------------------------
3)
Db--7-9--------7-9-------7-9-------7-----------7-9
Ab--5-7--------5-7-------5-7-------5---5-7---7-5-7
Eb-------0-0-0-----0-0-0-----0-0-0---0-3-5-0-5----
pm.... ..... ..... . .
4)
Db--------9-9--------------9-9--------------9-9---------------2
Ab--------7-7-----7-5------7-7-----5-7------7-7-----7-5--7-5--2
Eb--0-0-0-0-0-0-0-5-3-3h5--0-0-0-0-3-5-5p3--0-0-0-0-5-3--5-3--0
pm.... ... ... ... ... ... ...
verse
"Suppose I say I'm never satisfied."
5a)
Db--7-7-8---5----------7-7-8---5----------7-7-8---5--5-5-5-5-7
Ab--5-5-6-0-3------0-3-5-5-6-0-3------0-3-5-5-6-0-3--3-3-3-3-5
Eb------------------------------------------------------------
pm ... . ... .
5b) continuation of 5a
Db------------------------------------------------------------
Ab--7-7-8---5----------7-7-8---5----------7-7-8---5----5-5-5-7
Eb--5-5-6-0-3--0-0-0h3-5-5-6-0-3--0-0-0h3-5-5-6-0-3--0-3-3-3-5
pm ....... . ....... . .
chorus
"Oh I hunger, I hunger I eat. Born into attitude."
6) James
^
eb---------------------- ---------10-10-10-10-15-15-15-15
Bb--10-8------------10-- -8-8-8-8------------------------
Gb---9---9--7---7------9 3 times --------------------------------
Db------------9---9----- (w/slight --------------------------------
Ab---------------------- variations) --------------------------------
Eb---------------------- --------------------------------
pre solo

---------------------------- Metallica ----------------------------
----------------------- Fixxxer -----------------------
tune all guitars down 1/2 step
1/2
1) ^
eb--14----
Bb--15--15
Gb------14
Db--------
Ab--------
Eb--------
This is that noise that happens all through the song. Kirk uses the
trem to bend it up a half step, but if you don't have one, just slide
up one fret. It alternates one to the other.

2)
Gb----------------------- -------------------- ----------------
Db-------7-5-------5h7-5- twice ------5---x-x--x-x-x twice ----------------
Ab--5h7~~-----5h7~~------ then -5h7----7-x-x--x-x-x then -5h7-3h5-2h3-0h2
Eb----------------------- -------------------- ----------------
with wah no wah
3)
Db---------------------------------4-5-7
Ab------7-5-7--------8------7-5-7------5
Eb--0-0--------6-5-6----0-0-------------
4)
Gb----------4----------4----------4----------2
Db--4-5-4-2-2--4-5-4-2-2--4-5-4-2-2--4-5-4-2-0
Ab--------------------------------------------
Eb--------------------------------------------
verse
"Don't suppose you are stuck with me."
5)
Gb--------------------------------------------
Db----------7----------7----------7----------5
Ab--7-8-7-5-5--7-8-7-5-5--7-8-7-5-5--7-8-7-5-3
Eb--------------------------------------------
verse
"Sooner or later..."
6a) distorted
^ ^
Db---------5h7-5-7-5--------5h7-5-7-5-7------5h7-5-7-5-5--4
Ab--2--5h7-----------5--5h7-----------5--5h7-----------3--2
Eb--0----------------3-------------------------------------
6b) clean
eb---------------------------------------------
Bb--------3--------3---------------------------
Gb------0--------0--------7--------5--------4--
Db----2--------2--------7---7----5---5----4---4
Ab--------------------5--------3--------2------
Eb--0--------3---------------------------------
chorus
"Can you hear what father's done"
7)
Gb-------7---------7-----------------------------
Db--7-9--5-9--7-9--5-9-------5-------------------
Ab--5-7----7--5-7----7--5-7----7--5h7-3h5-2h3-0h2
Eb-----------------------------------------------
Pre solo
8)
Gb-------------------------------1-2--
Db------2-4-2-------5------2-4-2-----4
Ab------------2-3-2------------------4
Eb--2-2----------------2-2-----------2
begining of solo then back to 2)
9)
Db-------2---------2-----
Ab--2-4--0-4--2-4--0-4--2
Eb--0-2----2--0-2----2--0
end of solo
10)
eb----------------------
Bb--------3-------------
Gb------0---------------
Db----2----------5-7-7-5
Ab-----------5-7--------
Eb--0-------------------
verse after the solo (keep repeating.


--------------------------------------------------------------
----------------------------------------------------------------------------
-------------------------------------------------


Now This Might Have A Few Errors But Its Mainly Correct…
All Questions/comments/corrections/abuse send it to me @ Daniel_allen69@hotmail.com Thanks


Listen to this song at Rdio  
Get this song at amazon.com     Ringtones Ringtones  eMusic  

Learn to play: Songwriting, Piano, Harmonica, Guitar
More Metallica lyrics available at Muzikum

Related Metallica Tabs

Eye Of The Beholder,correct(rate) tabs
Enter The Sand Man tabs
From Whom The Bell Tolls tabs
Of wolf and man tabs
Poor Touring Me Solos tabs
Today Your Love tabs
Whiskey In The Jar Part 1 tabs
Am I Evil tabs
Attitude tabs
Whiskey In Tha Jar tabs
Kirk Hammet Slide Solo On S&m Solo tabs
The God that Fail tabs
Battery Solo tabs
Whiskey In The Jar tabs
And Justice Album tabs
Seek And Destroy Intro tabs
Call Of Ktulu tabs
The Prince,corect(rate) tabs
Blackened (2) tabs
Frayed tabs


Guitar Tabs




All tabs are property and copyright of their owners. All tabs provided for educational purposes only. Privacy Policy, DMCA